  0
SECTION
  2
HEADER
  9
$ACADVER
  1
AC1015
  9
$ACADMAINTVER
 70
    20
  9
$DWGCODEPAGE
  3
ANSI_1250
  9
$INSBASE
 10
0.0
 20
0.0
 30
0.0
  9
$EXTMIN
 10
-857.0
 20
-1191.999999999993
 30
0.0
  9
$EXTMAX
 10
2400.0
 20
499.9999999999999
 30
0.0
  9
$LIMMIN
 10
0.0
 20
0.0
  9
$LIMMAX
 10
420.0
 20
297.0
  9
$ORTHOMODE
 70
     0
  9
$REGENMODE
 70
     1
  9
$FILLMODE
 70
     1
  9
$QTEXTMODE
 70
     0
  9
$MIRRTEXT
 70
     0
  9
$LTSCALE
 40
1.0
  9
$ATTMODE
 70
     1
  9
$TEXTSIZE
 40
2.5
  9
$TRACEWID
 40
1.0
  9
$TEXTSTYLE
  7
Standard
  9
$CLAYER
  8
AS_ROZP1
  9
$CELTYPE
  6
ByLayer
  9
$CECOLOR
 62
   256
  9
$CELTSCALE
 40
1.0
  9
$DISPSILH
 70
     0
  9
$DIMSCALE
 40
1.0
  9
$DIMASZ
 40
2.5
  9
$DIMEXO
 40
0.625
  9
$DIMDLI
 40
3.75
  9
$DIMRND
 40
0.0
  9
$DIMDLE
 40
0.0
  9
$DIMEXE
 40
1.25
  9
$DIMTP
 40
0.0
  9
$DIMTM
 40
0.0
  9
$DIMTXT
 40
2.5
  9
$DIMCEN
 40
2.5
  9
$DIMTSZ
 40
0.0
  9
$DIMTOL
 70
     0
  9
$DIMLIM
 70
     0
  9
$DIMTIH
 70
     0
  9
$DIMTOH
 70
     0
  9
$DIMSE1
 70
     0
  9
$DIMSE2
 70
     0
  9
$DIMTAD
 70
     1
  9
$DIMZIN
 70
     8
  9
$DIMBLK
  1

  9
$DIMASO
 70
     1
  9
$DIMSHO
 70
     1
  9
$DIMPOST
  1

  9
$DIMAPOST
  1

  9
$DIMALT
 70
     0
  9
$DIMALTD
 70
     3
  9
$DIMALTF
 40
0.03937007874016
  9
$DIMLFAC
 40
1.0
  9
$DIMTOFL
 70
     1
  9
$DIMTVP
 40
0.0
  9
$DIMTIX
 70
     0
  9
$DIMSOXD
 70
     0
  9
$DIMSAH
 70
     0
  9
$DIMBLK1
  1

  9
$DIMBLK2
  1

  9
$DIMSTYLE
  2
ISO-25
  9
$DIMCLRD
 70
     0
  9
$DIMCLRE
 70
     0
  9
$DIMCLRT
 70
     0
  9
$DIMTFAC
 40
1.0
  9
$DIMGAP
 40
0.625
  9
$DIMJUST
 70
     0
  9
$DIMSD1
 70
     0
  9
$DIMSD2
 70
     0
  9
$DIMTOLJ
 70
     0
  9
$DIMTZIN
 70
     8
  9
$DIMALTZ
 70
     0
  9
$DIMALTTZ
 70
     0
  9
$DIMUPT
 70
     0
  9
$DIMDEC
 70
     2
  9
$DIMTDEC
 70
     2
  9
$DIMALTU
 70
     2
  9
$DIMALTTD
 70
     3
  9
$DIMTXSTY
  7
Standard
  9
$DIMAUNIT
 70
     0
  9
$DIMADEC
 70
     0
  9
$DIMALTRND
 40
0.0
  9
$DIMAZIN
 70
     0
  9
$DIMDSEP
 70
    44
  9
$DIMATFIT
 70
     3
  9
$DIMFRAC
 70
     0
  9
$DIMLDRBLK
  1

  9
$DIMLUNIT
 70
     2
  9
$DIMLWD
 70
    -2
  9
$DIMLWE
 70
    -2
  9
$DIMTMOVE
 70
     0
  9
$LUNITS
 70
     2
  9
$LUPREC
 70
     4
  9
$SKETCHINC
 40
1.0
  9
$FILLETRAD
 40
0.0
  9
$AUNITS
 70
     0
  9
$AUPREC
 70
     0
  9
$MENU
  1
.
  9
$ELEVATION
 40
0.0
  9
$PELEVATION
 40
0.0
  9
$THICKNESS
 40
0.0
  9
$LIMCHECK
 70
     0
  9
$CHAMFERA
 40
0.0
  9
$CHAMFERB
 40
0.0
  9
$CHAMFERC
 40
0.0
  9
$CHAMFERD
 40
0.0
  9
$SKPOLY
 70
     0
  9
$TDCREATE
 40
2454426.490075949
  9
$TDUCREATE
 40
2454426.406742616
  9
$TDUPDATE
 40
2454638.598203854
  9
$TDUUPDATE
 40
2454638.514870520
  9
$TDINDWG
 40
0.1288323495
  9
$TDUSRTIMER
 40
0.1288311921
  9
$USRTIMER
 70
     1
  9
$ANGBASE
 50
0.0
  9
$ANGDIR
 70
     0
  9
$PDMODE
 70
     0
  9
$PDSIZE
 40
0.0
  9
$PLINEWID
 40
0.0
  9
$SPLFRAME
 70
     0
  9
$SPLINETYPE
 70
     6
  9
$SPLINESEGS
 70
     8
  9
$HANDSEED
  5
C71
  9
$SURFTAB1
 70
     6
  9
$SURFTAB2
 70
     6
  9
$SURFTYPE
 70
     6
  9
$SURFU
 70
     6
  9
$SURFV
 70
     6
  9
$UCSBASE
  2

  9
$UCSNAME
  2

  9
$UCSORG
 10
0.0
 20
0.0
 30
0.0
  9
$UCSXDIR
 10
1.0
 20
0.0
 30
0.0
  9
$UCSYDIR
 10
0.0
 20
1.0
 30
0.0
  9
$UCSORTHOREF
  2

  9
$UCSORTHOVIEW
 70
     1
  9
$UCSORGTOP
 10
0.0
 20
0.0
 30
0.0
  9
$UCSORGBOTTOM
 10
0.0
 20
0.0
 30
0.0
  9
$UCSORGLEFT
 10
0.0
 20
0.0
 30
0.0
  9
$UCSORGRIGHT
 10
0.0
 20
0.0
 30
0.0
  9
$UCSORGFRONT
 10
0.0
 20
0.0
 30
0.0
  9
$UCSORGBACK
 10
0.0
 20
0.0
 30
0.0
  9
$PUCSBASE
  2

  9
$PUCSNAME
  2

  9
$PUCSORG
 10
0.0
 20
0.0
 30
0.0
  9
$PUCSXDIR
 10
1.0
 20
0.0
 30
0.0
  9
$PUCSYDIR
 10
0.0
 20
1.0
 30
0.0
  9
$PUCSORTHOREF
  2

  9
$PUCSORTHOVIEW
 70
     0
  9
$PUCSORGTOP
 10
0.0
 20
0.0
 30
0.0
  9
$PUCSORGBOTTOM
 10
0.0
 20
0.0
 30
0.0
  9
$PUCSORGLEFT
 10
0.0
 20
0.0
 30
0.0
  9
$PUCSORGRIGHT
 10
0.0
 20
0.0
 30
0.0
  9
$PUCSORGFRONT
 10
0.0
 20
0.0
 30
0.0
  9
$PUCSORGBACK
 10
0.0
 20
0.0
 30
0.0
  9
$USERI1
 70
     0
  9
$USERI2
 70
     0
  9
$USERI3
 70
     0
  9
$USERI4
 70
     0
  9
$USERI5
 70
     0
  9
$USERR1
 40
0.0
  9
$USERR2
 40
0.0
  9
$USERR3
 40
0.0
  9
$USERR4
 40
0.0
  9
$USERR5
 40
0.0
  9
$WORLDVIEW
 70
     1
  9
$SHADEDGE
 70
     3
  9
$SHADEDIF
 70
    70
  9
$TILEMODE
 70
     1
  9
$MAXACTVP
 70
    64
  9
$PINSBASE
 10
0.0
 20
0.0
 30
0.0
  9
$PLIMCHECK
 70
     0
  9
$PEXTMIN
 10
1.000000000000000E+20
 20
1.000000000000000E+20
 30
1.000000000000000E+20
  9
$PEXTMAX
 10
-1.000000000000000E+20
 20
-1.000000000000000E+20
 30
-1.000000000000000E+20
  9
$PLIMMIN
 10
0.0
 20
0.0
  9
$PLIMMAX
 10
420.0
 20
297.0
  9
$UNITMODE
 70
     0
  9
$VISRETAIN
 70
     1
  9
$PLINEGEN
 70
     0
  9
$PSLTSCALE
 70
     1
  9
$TREEDEPTH
 70
  3020
  9
$CMLSTYLE
  2
Standard
  9
$CMLJUST
 70
     0
  9
$CMLSCALE
 40
20.0
  9
$PROXYGRAPHICS
 70
     1
  9
$MEASUREMENT
 70
     1
  9
$CELWEIGHT
370
    -1
  9
$ENDCAPS
280
     0
  9
$JOINSTYLE
280
     0
  9
$LWDISPLAY
290
     0
  9
$INSUNITS
 70
     4
  9
$HYPERLINKBASE
  1

  9
$STYLESHEET
  1

  9
$XEDIT
290
     1
  9
$CEPSNTYPE
380
     0
  9
$PSTYLEMODE
290
     1
  9
$FINGERPRINTGUID
  2
{D0192279-C338-45BD-BED9-3BF1BF248130}
  9
$VERSIONGUID
  2
{8BF9375C-AFD4-4397-9FDC-3117820272D2}
  9
$EXTNAMES
290
     1
  9
$PSVPSCALE
 40
0.0
  9
$OLESTARTUP
290
     0
  0
ENDSEC
  0
SECTION
  2
CLASSES
  0
CLASS
  1
ACDBDICTIONARYWDFLT
  2
AcDbDictionaryWithDefault
  3
ObjectDBX Classes
 90
        0
280
     0
281
     0
  0
CLASS
  1
TABLESTYLE
  2
AcDbTableStyle
  3
ObjectDBX Classes
 90
     2047
280
     0
281
     0
  0
CLASS
  1
SORTENTSTABLE
  2
AcDbSortentsTable
  3
ObjectDBX Classes
 90
        0
280
     0
281
     0
  0
CLASS
  1
DICTIONARYVAR
  2
AcDbDictionaryVar
  3
ObjectDBX Classes
 90
        0
280
     0
281
     0
  0
CLASS
  1
IMAGE
  2
AcDbRasterImage
  3
ISM
 90
    32895
280
     0
281
     1
  0
CLASS
  1
IMAGEDEF_REACTOR
  2
AcDbRasterImageDefReactor
  3
ISM
 90
    32769
280
     0
281
     0
  0
CLASS
  1
IMAGEDEF
  2
AcDbRasterImageDef
  3
ISM
 90
        0
280
     0
281
     0
  0
CLASS
  1
RASTERVARIABLES
  2
AcDbRasterVariables
  3
ISM
 90
        0
280
     0
281
     0
  0
CLASS
  1
ACDBPLACEHOLDER
  2
AcDbPlaceHolder
  3
ObjectDBX Classes
 90
        0
280
     0
281
     0
  0
CLASS
  1
LAYOUT
  2
AcDbLayout
  3
ObjectDBX Classes
 90
        0
280
     0
281
     0
  0
ENDSEC
  0
SECTION
  2
TABLES
  0
TABLE
  2
VPORT
  5
8
330
0
100
AcDbSymbolTable
 70
     2
  0
VPORT
  5
C69
330
8
100
AcDbSymbolTableRecord
100
AcDbViewportTableRecord
  2
*Active
 70
     0
 10
0.0
 20
0.0
 11
1.0
 21
1.0
 12
2133.013725263501
 22
-112.3607452846349
 13
0.0
 23
0.0
 14
10.0
 24
10.0
 15
10.0
 25
10.0
 16
0.0
 26
0.0
 36
1.0
 17
0.0
 27
0.0
 37
0.0
 40
3007.320292951331
 41
2.138297872340425
 42
50.0
 43
0.0
 44
0.0
 50
0.0
 51
0.0
 71
     0
 72
  1000
 73
     1
 74
     3
 75
     0
 76
     0
 77
     0
 78
     0
281
     0
 65
     1
110
0.0
120
0.0
130
0.0
111
1.0
121
0.0
131
0.0
112
0.0
122
1.0
132
0.0
 79
     1
146
0.0
  0
ENDTAB
  0
TABLE
  2
LTYPE
  5
5
330
0
100
AcDbSymbolTable
 70
     1
  0
LTYPE
  5
14
330
5
100
AcDbSymbolTableRecord
100
AcDbLinetypeTableRecord
  2
ByBlock
 70
     0
  3

 72
    65
 73
     0
 40
0.0
  0
LTYPE
  5
15
330
5
100
AcDbSymbolTableRecord
100
AcDbLinetypeTableRecord
  2
ByLayer
 70
     0
  3

 72
    65
 73
     0
 40
0.0
  0
LTYPE
  5
16
330
5
100
AcDbSymbolTableRecord
100
AcDbLinetypeTableRecord
  2
Continuous
 70
     0
  3
Solid line
 72
    65
 73
     0
 40
0.0
  0
ENDTAB
  0
TABLE
  2
LAYER
  5
2
102
{ACAD_XDICTIONARY
360
AEC
102
}
330
0
100
AcDbSymbolTable
 70
     3
  0
LAYER
  5
10
330
2
100
AcDbSymbolTableRecord
100
AcDbLayerTableRecord
  2
0
 70
     0
 62
     7
  6
Continuous
370
    -3
390
F
  0
LAYER
  5
AEA
330
2
100
AcDbSymbolTableRecord
100
AcDbLayerTableRecord
  2
AS_ROZP2
 70
     0
 62
     7
  6
Continuous
370
    -3
390
F
1001
AcAecLayerStandard
1000

1000

  0
LAYER
  5
B0B
330
2
100
AcDbSymbolTableRecord
100
AcDbLayerTableRecord
  2
AS_ROZP1
 70
     0
 62
   253
  6
Continuous
370
    -3
390
F
  0
ENDTAB
  0
TABLE
  2
STYLE
  5
3
330
0
100
AcDbSymbolTable
 70
     4
  0
STYLE
  5
11
330
3
100
AcDbSymbolTableRecord
100
AcDbTextStyleTableRecord
  2
Standard
 70
     0
 40
0.0
 41
1.0
 50
0.0
 71
     0
 42
2.5
  3
txt
  4

  0
STYLE
  5
B0D
330
3
100
AcDbSymbolTableRecord
100
AcDbTextStyleTableRecord
  2
romans-prj
 70
     0
 40
0.0
 41
0.6
 50
0.0
 71
     0
 42
28.83144555998427
  3
romans.shx
  4

  0
STYLE
  5
B28
330
3
100
AcDbSymbolTableRecord
100
AcDbTextStyleTableRecord
  2
FIN
 70
     0
 40
0.0
 41
0.8
 50
0.0
 71
     0
 42
175.0
  3
romans.shx
  4

  0
STYLE
  5
B29
330
3
100
AcDbSymbolTableRecord
100
AcDbTextStyleTableRecord
  2
KCE_POPIS
 70
     0
 40
0.0
 41
0.6
 50
0.0
 71
     0
 42
125.0
  3
ARIAL.TTF
  4

1001
ACAD
1000
Arial
1071
       34
  0
ENDTAB
  0
TABLE
  2
VIEW
  5
6
330
0
100
AcDbSymbolTable
 70
     0
  0
ENDTAB
  0
TABLE
  2
UCS
  5
7
330
0
100
AcDbSymbolTable
 70
     0
  0
ENDTAB
  0
TABLE
  2
APPID
  5
9
330
0
100
AcDbSymbolTable
 70
     4
  0
APPID
  5
12
330
9
100
AcDbSymbolTableRecord
100
AcDbRegAppTableRecord
  2
ACAD
 70
     0
  0
APPID
  5
2F
330
9
100
AcDbSymbolTableRecord
100
AcDbRegAppTableRecord
  2
ACAD_PSEXT
 70
     0
  0
APPID
  5
289
330
9
100
AcDbSymbolTableRecord
100
AcDbRegAppTableRecord
  2
ACAD_EXEMPT_FROM_CAD_STANDARDS
 70
     0
  0
APPID
  5
AEB
330
9
100
AcDbSymbolTableRecord
100
AcDbRegAppTableRecord
  2
AcAecLayerStandard
 70
     0
  0
ENDTAB
  0
TABLE
  2
DIMSTYLE
  5
A
330
0
100
AcDbSymbolTable
 70
     1
100
AcDbDimStyleTable
 71
     1
340
2B
  0
DIMSTYLE
105
2B
330
A
100
AcDbSymbolTableRecord
100
AcDbDimStyleTableRecord
  2
ISO-25
 70
     0
 41
2.5
 42
0.625
 43
3.75
 44
1.25
 73
     0
 74
     0
 77
     1
 78
     8
140
2.5
141
2.5
143
0.03937007874016
147
0.625
171
     3
172
     1
271
     2
272
     2
274
     3
278
    44
283
     0
284
     8
340
11
  0
ENDTAB
  0
TABLE
  2
BLOCK_RECORD
  5
1
330
0
100
AcDbSymbolTable
 70
     2
  0
BLOCK_RECORD
  5
23
102
{ACAD_XDICTIONARY
360
27D
102
}
330
1
100
AcDbSymbolTableRecord
100
AcDbBlockTableRecord
  2
*Model_Space
340
26
  0
BLOCK_RECORD
  5
1F
330
1
100
AcDbSymbolTableRecord
100
AcDbBlockTableRecord
  2
*Paper_Space
340
22
  0
BLOCK_RECORD
  5
27
330
1
100
AcDbSymbolTableRecord
100
AcDbBlockTableRecord
  2
*Paper_Space0
340
2A
  0
BLOCK_RECORD
  5
AEF
330
1
100
AcDbSymbolTableRecord
100
AcDbBlockTableRecord
  2
atelier SLANEC
340
0
310
2800000020000000200000000100080000000000000400000000000000000000000000000000000000000000000080000080000000808000800000008000800080800000C0C0C000C0DCC000F0CAA6000020400000206000002080000020A0000020C0000020E00000400000004020000040400000406000004080000040A0
310
000040C0000040E00000600000006020000060400000606000006080000060A0000060C0000060E00000800000008020000080400000806000008080000080A0000080C0000080E00000A0000000A0200000A0400000A0600000A0800000A0A00000A0C00000A0E00000C0000000C0200000C0400000C0600000C0800000C0
310
A00000C0C00000C0E00000E0000000E0200000E0400000E0600000E0800000E0A00000E0C00000E0E00040000000400020004000400040006000400080004000A0004000C0004000E00040200000402020004020400040206000402080004020A0004020C0004020E000404000004040200040404000404060004040800040
310
40A0004040C0004040E00040600000406020004060400040606000406080004060A0004060C0004060E00040800000408020004080400040806000408080004080A0004080C0004080E00040A0000040A0200040A0400040A0600040A0800040A0A00040A0C00040A0E00040C0000040C0200040C0400040C0600040C08000
310
40C0A00040C0C00040C0E00040E0000040E0200040E0400040E0600040E0800040E0A00040E0C00040E0E00080000000800020008000400080006000800080008000A0008000C0008000E00080200000802020008020400080206000802080008020A0008020C0008020E00080400000804020008040400080406000804080
310
008040A0008040C0008040E00080600000806020008060400080606000806080008060A0008060C0008060E00080800000808020008080400080806000808080008080A0008080C0008080E00080A0000080A0200080A0400080A0600080A0800080A0A00080A0C00080A0E00080C0000080C0200080C0400080C0600080C0
310
800080C0A00080C0C00080C0E00080E0000080E0200080E0400080E0600080E0800080E0A00080E0C00080E0E000C0000000C0002000C0004000C0006000C0008000C000A000C000C000C000E000C0200000C0202000C0204000C0206000C0208000C020A000C020C000C020E000C0400000C0402000C0404000C0406000C0
310
408000C040A000C040C000C040E000C0600000C0602000C0604000C0606000C0608000C060A000C060C000C060E000C0800000C0802000C0804000C0806000C0808000C080A000C080C000C080E000C0A00000C0A02000C0A04000C0A06000C0A08000C0A0A000C0A0C000C0A0E000C0C00000C0C02000C0C04000C0C06000
310
C0C08000C0C0A000F0FBFF00A4A0A000808080000000FF0000FF000000FFFF00FF000000FF00FF00FFFF0000FFFFFF0000000000000000000000000000000000000000000000000000000000000000000000000000000000000000000000000000000000000000000000000000000000000000000000000000000000000000
310
00000000000000000000000000000000000000000000000000000000000000000000000000000000000000000000000000000000000000000000000000000000000000000000000000000000000000000000000000000000000000000000000000000000000000000000000000000000000000000000000000000000000000
310
00000000000000000000000000000000000000000000000000000000000000000000000000000000000000000000000000000000000000000000000000000000000000000000000000000000000000000000000000000000000000000000000000000000000000000000000000000000000000000000000000000000000000
310
00000000000000000000000000000000000000000000000000000000000000000000000000000000000000000000000000000000000000000000000000000000000000000000000000000000000000000000000000000000000000000000FF00000000000000000000000000000000000000000000000000000000000000FF
310
FFFFFFFFFFFFFF00FFFF00FFFFFFFFFFFFFFFF0000FFFFFFFFFFFFFFFFFFFFFFFFFFFFFF0000FFFFFFFFFFFFFFFFFFFF00FFFF0000FFFFFFFFFFFFFFFFFFFFFFFFFFFFFF000000FF00FF00FFFFFFFFFFFFFFFF00000000FFFF0000FFFF0000FF00000000000000000000000000000000000000000000000000000000000000
310
FF000000000000000000000000000000000000000000000000000000000000000000000000000000000000000000000000000000000000000000000000000000000000000000000000000000000000000000000000000000000000000000000000000000000000000000000000000000000000000000000000000000000000
310
00000000000000000000000000000000000000000000000000000000000000000000000000000000000000000000000000000000000000000000000000000000000000000000000000000000000000000000000000000000000000000000000000000000000000000000000000000000000000000000000000000000000000
310
00000000000000000000000000000000000000000000000000000000000000000000000000000000000000000000000000000000000000000000000000000000000000000000000000000000000000000000000000000000000000000000000000000000000000000000000000000000000000000000000000000000000000
310
0000000000000000000000000000000000000000000000000000000000000000000000000000000000000000000000000000000000000000
102
{BLKREFS
331
C18
102
}
1001
ACAD
1000
DesignCenter Data
1002
{
1070
     1
1070
     4
1002
}
  0
ENDTAB
  0
ENDSEC
  0
SECTION
  2
BLOCKS
  0
BLOCK
  5
24
330
23
100
AcDbEntity
  8
0
100
AcDbBlockBegin
  2
*Model_Space
 70
     0
 10
0.0
 20
0.0
 30
0.0
  3
*Model_Space
  1

  0
ENDBLK
  5
25
330
23
100
AcDbEntity
  8
0
100
AcDbBlockEnd
  0
BLOCK
  5
20
330
1F
100
AcDbEntity
 67
     1
  8
0
100
AcDbBlockBegin
  2
*Paper_Space
 70
     0
 10
0.0
 20
0.0
 30
0.0
  3
*Paper_Space
  1

  0
ENDBLK
  5
21
330
1F
100
AcDbEntity
 67
     1
  8
0
100
AcDbBlockEnd
  0
BLOCK
  5
28
330
27
100
AcDbEntity
 67
     1
  8
0
100
AcDbBlockBegin
  2
*Paper_Space0
 70
     0
 10
0.0
 20
0.0
 30
0.0
  3
*Paper_Space0
  1

  0
ENDBLK
  5
29
330
27
100
AcDbEntity
 67
     1
  8
0
100
AcDbBlockEnd
  0
BLOCK
  5
AF0
330
AEF
100
AcDbEntity
  8
0
100
AcDbBlockBegin
  2
atelier SLANEC
 70
     0
 10
0.0
 20
0.0
 30
0.0
  3
atelier SLANEC
  1

  0
HATCH
  5
C0A
330
AEF
100
AcDbEntity
  8
0
100
AcDbHatch
 10
0.0
 20
0.0
 30
0.0
210
0.0
220
0.0
230
1.0
  2
SOLID
 70
     1
 71
     0
 91
        2
 92
        5
 93
       32
 72
     4
 94
        3
 73
     0
 74
     0
 95
        8
 96
        4
 40
0.90625
 40
0.90625
 40
0.90625
 40
0.90625
 40
0.9375
 40
0.9375
 40
0.9375
 40
0.9375
 10
140.4539383642359
 20
301.7208706657008
 10
138.0942467376126
 20
306.6822735729669
 10
133.3446110276151
 20
310.1310536426502
 10
126.1687282861302
 20
312.0067059612458
 72
     4
 94
        3
 73
     0
 74
     0
 95
        8
 96
        4
 40
0.875
 40
0.875
 40
0.875
 40
0.875
 40
0.90625
 40
0.90625
 40
0.90625
 40
0.90625
 10
126.1687282861302
 20
312.0067059612458
 10
118.3030895307233
 20
314.0941254771043
 10
106.0447940549748
 20
315.12875949801
 10
89.33938743675048
 20
315.12875949801
 72
     4
 94
        3
 73
     0
 74
     0
 95
        8
 96
        4
 40
0.84375
 40
0.84375
 40
0.84375
 40
0.84375
 40
0.875
 40
0.875
 40
0.875
 40
0.875
 10
89.33938743675048
 20
315.12875949801
 10
82.5567866330398
 20
315.12875949801
 10
75.96175106119813
 20
314.7657300169859
 10
69.51797777311004
 20
314.0336205636023
 72
     4
 94
        3
 73
     0
 74
     0
 95
        8
 96
        4
 40
0.8125
 40
0.8125
 40
0.8125
 40
0.8125
 40
0.84375
 40
0.84375
 40
0.84375
 40
0.84375
 10
69.51797777311004
 20
314.0336205636023
 10
63.40698150928187
 20
313.458823885329
 10
58.50003302418099
 20
312.3697354422699
 10
54.74872838697649
 20
310.705850320923
 72
     4
 94
        3
 73
     0
 74
     0
 95
        8
 96
        4
 40
0.78125
 40
0.78125
 40
0.78125
 40
0.78125
 40
0.8125
 40
0.8125
 40
0.8125
 40
0.8125
 10
54.74872838697649
 20
310.705850320923
 10
51.02162571518761
 20
309.0419651995911
 10
48.2383996940315
 20
306.4402539189608
 10
46.45350474569522
 20
302.8704640222614
 72
     4
 94
        3
 73
     0
 74
     0
 95
        8
 96
        4
 40
0.75
 40
0.75
 40
0.75
 40
0.75
 40
0.78125
 40
0.78125
 40
0.78125
 40
0.78125
 10
46.45350474569522
 20
302.8704640222614
 10
44.66860979734565
 20
299.3248760909697
 10
43.79128855154942
 20
294.4542305539761
 10
43.79128855154942
 20
288.282729376646
 72
     4
 94
        3
 73
     0
 74
     0
 95
        8
 96
        4
 40
0.71875
 40
0.71875
 40
0.71875
 40
0.71875
 40
0.75
 40
0.75
 40
0.75
 40
0.75
 10
43.79128855154942
 20
288.282729376646
 10
43.79128855154942
 20
288.282729376646
 10
57.56220686487631
 20
288.282729376646
 10
57.56220686487631
 20
288.282729376646
 72
     4
 94
        3
 73
     0
 74
     0
 95
        8
 96
        4
 40
0.6875
 40
0.6875
 40
0.6875
 40
0.6875
 40
0.71875
 40
0.71875
 40
0.71875
 40
0.71875
 10
57.56220686487631
 20
288.282729376646
 10
57.56220686487631
 20
292.8508503461461
 10
58.40927565392167
 20
296.2693779590694
 10
60.10341323201226
 20
298.5080597586891
 72
     4
 94
        3
 73
     0
 74
     0
 95
        8
 96
        4
 40
0.65625
 40
0.65625
 40
0.65625
 40
0.65625
 40
0.6875
 40
0.6875
 40
0.6875
 40
0.6875
 10
60.10341323201226
 20
298.5080597586891
 10
61.79755081010205
 20
300.7467415582952
 10
64.8833013987603
 20
302.1746575169842
 10
69.36671548934885
 20
302.7434037039089
 72
     4
 94
        3
 73
     0
 74
     0
 95
        8
 96
        4
 40
0.625
 40
0.625
 40
0.625
 40
0.625
 40
0.65625
 40
0.65625
 40
0.65625
 40
0.65625
 10
69.36671548934885
 20
302.7434037039089
 10
74.81215770463029
 20
303.5057656140493
 10
83.04082594107468
 20
303.8687950950739
 10
94.0285182332459
 20
303.8687950950739
 72
     4
 94
        3
 73
     0
 74
     0
 95
        8
 96
        4
 40
0.59375
 40
0.59375
 40
0.59375
 40
0.59375
 40
0.625
 40
0.625
 40
0.625
 40
0.625
 10
94.0285182332459
 20
303.8687950950739
 10
110.3406429137085
 20
303.8687950950739
 10
120.4510139600908
 20
302.5376869979942
 10
124.353580881036
 20
299.8754708038483
 72
     4
 94
        3
 73
     0
 74
     0
 95
        8
 96
        4
 40
0.5625
 40
0.5625
 40
0.5625
 40
0.5625
 40
0.59375
 40
0.59375
 40
0.59375
 40
0.59375
 10
124.353580881036
 20
299.8754708038483
 10
127.2578167291892
 20
297.9635155371596
 10
129.1334690477908
 20
295.2105419727553
 10
130.0168407849362
 20
291.6710045328409
 72
     4
 94
        3
 73
     0
 74
     0
 95
        8
 96
        4
 40
0.53125
 40
0.53125
 40
0.53125
 40
0.53125
 40
0.5625
 40
0.5625
 40
0.5625
 40
0.5625
 10
130.0168407849362
 20
291.6710045328409
 10
130.8578590826324
 20
288.095164144792
 10
131.2874439685002
 20
283.8295677428154
 10
131.2874439685002
 20
278.8379123788036
 72
     4
 94
        3
 73
     0
 74
     0
 95
        8
 96
        4
 40
0.5
 40
0.5
 40
0.5
 40
0.5
 40
0.53125
 40
0.53125
 40
0.53125
 40
0.53125
 10
131.2874439685002
 20
278.8379123788036
 10
131.2874439685002
 20
278.8379123788036
 10
131.2874439685002
 20
269.7561248619721
 10
131.2874439685002
 20
269.7561248619721
 72
     4
 94
        3
 73
     0
 74
     0
 95
        8
 96
        4
 40
0.46875
 40
0.46875
 40
0.46875
 40
0.46875
 40
0.5
 40
0.5
 40
0.5
 40
0.5
 10
131.2874439685002
 20
269.7561248619721
 10
128.7704395667671
 20
273.1504505095161
 10
126.1989807428875
 20
275.4798896793805
 10
123.5670170054995
 20
276.7504928629456
 72
     4
 94
        3
 73
     0
 74
     0
 95
        8
 96
        4
 40
0.4375
 40
0.4375
 40
0.4375
 40
0.4375
 40
0.46875
 40
0.46875
 40
0.46875
 40
0.46875
 10
123.5670170054995
 20
276.7504928629456
 10
120.9350532681114
 20
278.0210960465097
 10
117.3350109146752
 20
278.8379123788036
 10
112.7608394538272
 20
279.2009418598286
 72
     4
 94
        3
 73
     0
 74
     0
 95
        8
 96
        4
 40
0.40625
 40
0.40625
 40
0.40625
 40
0.40625
 40
0.4375
 40
0.4375
 40
0.4375
 40
0.4375
 10
112.7608394538272
 20
279.2009418598286
 10
105.6515121172061
 20
279.6547287110984
 10
97.68906550019165
 20
279.8967483651062
 10
88.82509567197189
 20
279.8967483651062
 72
     4
 94
        3
 73
     0
 74
     0
 95
        8
 96
        4
 40
0.375
 40
0.375
 40
0.375
 40
0.375
 40
0.40625
 40
0.40625
 40
0.40625
 40
0.40625
 10
88.82509567197189
 20
279.8967483651062
 10
77.77689846629186
 20
279.8967483651062
 10
69.54823022986102
 20
279.5942237975964
 10
64.12698997997506
 20
279.0194271193091
 72
     4
 94
        3
 73
     0
 74
     0
 95
        8
 96
        4
 40
0.34375
 40
0.34375
 40
0.34375
 40
0.34375
 40
0.375
 40
0.375
 40
0.375
 40
0.375
 10
64.12698997997506
 20
279.0194271193091
 10
57.89498388915035
 20
278.4748828977795
 10
53.05459080889318
 20
277.325289541233
 10
49.59976024785476
 20
275.5101421361256
 72
     4
 94
        3
 73
     0
 74
     0
 95
        8
 96
        4
 40
0.3125
 40
0.3125
 40
0.3125
 40
0.3125
 40
0.34375
 40
0.34375
 40
0.34375
 40
0.34375
 10
49.59976024785476
 20
275.5101421361256
 10
46.12072772142858
 20
273.6949947310455
 10
43.67027872454559
 20
271.0327785368999
 10
42.18790834371861
 20
267.4266856921066
 72
     4
 94
        3
 73
     0
 74
     0
 95
        8
 96
        4
 40
0.28125
 40
0.28125
 40
0.28125
 40
0.28125
 40
0.3125
 40
0.3125
 40
0.3125
 40
0.3125
 10
42.18790834371861
 20
267.4266856921066
 10
40.70553796289118
 20
263.8568957954072
 10
39.97947900084978
 20
258.9559978016698
 10
39.97947900084978
 20
252.6876887627177
 72
     4
 94
        3
 73
     0
 74
     0
 95
        8
 96
        4
 40
0.25
 40
0.25
 40
0.25
 40
0.25
 40
0.28125
 40
0.28125
 40
0.28125
 40
0.28125
 10
39.97947900084978
 20
252.6876887627177
 10
39.97947900084978
 20
245.3968466855985
 10
41.67361657894673
 20
239.8606471000576
 10
45.09214419187128
 20
236.1335444282614
 72
     4
 94
        3
 73
     0
 74
     0
 95
        8
 96
        4
 40
0.21875
 40
0.21875
 40
0.21875
 40
0.21875
 40
0.25
 40
0.25
 40
0.25
 40
0.25
 10
45.09214419187128
 20
236.1335444282614
 10
48.51067180479629
 20
232.3822397910566
 10
52.84282361162309
 20
229.9620432509313
 10
58.10675108640589
 20
228.8729548078721
 72
     4
 94
        3
 73
     0
 74
     0
 95
        8
 96
        4
 40
0.1875
 40
0.1875
 40
0.1875
 40
0.1875
 40
0.21875
 40
0.21875
 40
0.21875
 40
0.21875
 10
58.10675108640589
 20
228.8729548078721
 10
63.37067856118903
 20
227.7778158734641
 10
69.72974497036648
 20
227.2393221432835
 10
77.17184933125395
 20
227.2393221432835
 72
     4
 94
        3
 73
     0
 74
     0
 95
        8
 96
        4
 40
0.15625
 40
0.15625
 40
0.15625
 40
0.15625
 40
0.1875
 40
0.1875
 40
0.1875
 40
0.1875
 10
77.17184933125395
 20
227.2393221432835
 10
77.17184933125395
 20
227.2393221432835
 10
88.25029899369145
 20
227.2393221432835
 10
88.25029899369145
 20
227.2393221432835
 72
     4
 94
        3
 73
     0
 74
     0
 95
        8
 96
        4
 40
0.125
 40
0.125
 40
0.125
 40
0.125
 40
0.15625
 40
0.15625
 40
0.15625
 40
0.15625
 10
88.25029899369145
 20
227.2393221432835
 10
98.66319460758894
 20
227.2393221432835
 10
106.4985809062579
 20
227.4208368838031
 10
111.7020034675323
 20
227.8080683302355
 72
     4
 94
        3
 73
     0
 74
     0
 95
        8
 96
        4
 40
0.09375
 40
0.09375
 40
0.09375
 40
0.09375
 40
0.125
 40
0.125
 40
0.125
 40
0.125
 10
111.7020034675323
 20
227.8080683302355
 10
116.3971847553705
 20
228.2074007593387
 10
120.2997516763222
 20
229.1754793753938
 10
123.4460071784957
 20
230.7183546697246
 72
     4
 94
        3
 73
     0
 74
     0
 95
        8
 96
        4
 40
0.0625
 40
0.0625
 40
0.0625
 40
0.0625
 40
0.09375
 40
0.09375
 40
0.09375
 40
0.09375
 10
123.4460071784957
 20
230.7183546697246
 10
126.5620102239053
 20
232.2612299640531
 10
129.1939739613001
 20
234.8629412446827
 10
131.2874439685002
 20
238.4932360548843
 72
     4
 94
        3
 73
     0
 74
     0
 95
        8
 96
        4
 40
0.03125
 40
0.03125
 40
0.03125
 40
0.03125
 40
0.0625
 40
0.0625
 40
0.0625
 40
0.0625
 10
131.2874439685002
 20
238.4932360548843
 10
131.2874439685002
 20
238.4932360548843
 10
131.2874439685004
 20
228.0000000000027
 10
131.2874439685004
 20
228.0000000000027
 72
     4
 94
        3
 73
     0
 74
     0
 95
        8
 96
        4
 40
0.0
 40
0.0
 40
0.0
 40
0.0
 40
0.03125
 40
0.03125
 40
0.03125
 40
0.03125
 10
131.2874439685004
 20
228.0000000000027
 10
131.2874439685004
 20
228.0000000000027
 10
143.9934758041713
 20
228.0000000000027
 10
143.9934758041713
 20
228.0000000000027
 72
     4
 94
        3
 73
     0
 74
     0
 95
        8
 96
        4
 40
0.984375
 40
0.984375
 40
0.984375
 40
0.984375
 40
1.0
 40
1.0
 40
1.0
 40
1.0
 10
143.9934758041713
 20
228.0000000000027
 10
143.9934758041713
 20
228.0000000000027
 10
143.9934758041713
 20
241.4279739425555
 10
143.993475804171
 20
254.8559478851079
 72
     4
 94
        3
 73
     0
 74
     0
 95
       12
 96
        8
 40
0.9375
 40
0.9375
 40
0.9375
 40
0.9375
 40
0.953125
 40
0.953125
 40
0.953125
 40
0.953125
 40
0.984375
 40
0.984375
 40
0.984375
 40
0.984375
 10
143.993475804171
 20
254.8559478851079
 10
143.993475804171
 20
268.2839218276602
 10
143.993475804171
 20
281.7118957702131
 10
143.993475804171
 20
281.7118957702131
 10
143.993475804171
 20
281.7118957702131
 10
143.993475804171
 20
290.0676243249819
 10
142.813629990859
 20
296.7231648103405
 10
140.4539383642359
 20
301.7208706657008
 97
        0
 92
       20
 93
       12
 72
     4
 94
        3
 73
     0
 74
     0
 95
        8
 96
        4
 40
0.5833333333333334
 40
0.5833333333333334
 40
0.5833333333333334
 40
0.5833333333333334
 40
0.6666666666666668
 40
0.6666666666666668
 40
0.6666666666666668
 40
0.6666666666666668
 10
100.2665748154267
 20
268.8243491940237
 10
111.913770664789
 20
268.8243491940237
 10
119.9064697385607
 20
267.8502200866195
 10
124.202318597282
 20
265.9443153112797
 72
     4
 94
        3
 73
     0
 74
     0
 95
        8
 96
        4
 40
0.4999999999999999
 40
0.4999999999999999
 40
0.4999999999999999
 40
0.4999999999999999
 40
0.5833333333333332
 40
0.5833333333333332
 40
0.5833333333333332
 40
0.5833333333333332
 10
124.202318597282
 20
265.9443153112797
 10
128.9217018505353
 20
263.7661384251615
 10
131.2874439685002
 20
259.7728141339633
 10
131.2874439685002
 20
253.9280394895373
 72
     4
 94
        3
 73
     0
 74
     0
 95
        8
 96
        4
 40
0.4166666666666666
 40
0.4166666666666666
 40
0.4166666666666666
 40
0.4166666666666666
 40
0.5
 40
0.5
 40
0.5
 40
0.5
 10
131.2874439685002
 20
253.9280394895373
 10
131.2874439685002
 20
247.0909842636877
 10
127.8386638988252
 20
242.7648829481963
 10
120.9653057248692
 20
240.8831801382521
 72
     4
 94
        3
 73
     0
 74
     0
 95
        8
 96
        4
 40
0.3333333333333333
 40
0.3333333333333333
 40
0.3333333333333333
 40
0.3333333333333333
 40
0.4166666666666666
 40
0.4166666666666666
 40
0.4166666666666666
 40
0.4166666666666666
 10
120.9653057248692
 20
240.8831801382521
 10
115.1265815718059
 20
239.3100523871791
 10
104.2901515633823
 20
238.4932360548843
 10
88.40156127745251
 20
238.4932360548843
 72
     4
 94
        3
 73
     0
 74
     0
 95
        8
 96
        4
 40
0.25
 40
0.25
 40
0.25
 40
0.25
 40
0.3333333333333333
 40
0.3333333333333333
 40
0.3333333333333333
 40
0.3333333333333333
 10
88.40156127745251
 20
238.4932360548843
 10
88.40156127745251
 20
238.4932360548843
 10
73.57180697781712
 20
238.8562655359084
 10
73.57180697781712
 20
238.8562655359084
 72
     4
 94
        3
 73
     0
 74
     0
 95
        8
 96
        4
 40
0.1666666666666667
 40
0.1666666666666667
 40
0.1666666666666667
 40
0.1666666666666667
 40
0.25
 40
0.25
 40
0.25
 40
0.25
 10
73.57180697781712
 20
238.8562655359084
 10
69.15494829208603
 20
238.9772753628987
 10
65.60936036080192
 20
239.340304843936
 10
62.91689170990583
 20
239.9211520135591
 72
     4
 94
        3
 73
     0
 74
     0
 95
        8
 96
        4
 40
0.0833333333333333
 40
0.0833333333333333
 40
0.0833333333333333
 40
0.0833333333333333
 40
0.1666666666666667
 40
0.1666666666666667
 40
0.1666666666666667
 40
0.1666666666666667
 10
62.91689170990583
 20
239.9211520135591
 10
60.22442305901575
 20
240.5201506572407
 10
57.9857412593957
 20
241.827056788912
 10
56.23109876780347
 20
243.8539713912554
 72
     4
 94
        3
 73
     0
 74
     0
 95
        8
 96
        4
 40
0.0
 40
0.0
 40
0.0
 40
0.0
 40
0.0833333333333333
 40
0.0833333333333333
 40
0.0833333333333333
 40
0.0833333333333333
 10
56.23109876780347
 20
243.8539713912554
 10
54.44620381946072
 20
245.8808859936259
 10
53.56888257367177
 20
248.8153742985229
 10
53.56888257367177
 20
252.6876887627177
 72
     4
 94
        3
 73
     0
 74
     0
 95
        8
 96
        4
 40
0.9166666666666669
 40
0.9166666666666669
 40
0.9166666666666669
 40
0.9166666666666669
 40
1.0
 40
1.0
 40
1.0
 40
1.0
 10
53.56888257367177
 20
252.6876887627177
 10
53.56888257367177
 20
259.6820567636907
 10
55.868069286793
 20
264.0384105359254
 10
60.49669516978008
 20
265.7628005707611
 72
     4
 94
        3
 73
     0
 74
     0
 95
        8
 96
        4
 40
0.8333333333333333
 40
0.8333333333333333
 40
0.8333333333333333
 40
0.8333333333333333
 40
0.9166666666666667
 40
0.9166666666666667
 40
0.9166666666666667
 40
0.9166666666666667
 10
60.49669516978008
 20
265.7628005707611
 10
65.66986527430367
 20
267.6687053461141
 10
75.17518718565487
 20
268.6367839621697
 10
88.97635795572568
 20
268.6367839621697
 72
     4
 94
        3
 73
     0
 74
     0
 95
        8
 96
        4
 40
0.7500000000000001
 40
0.7500000000000001
 40
0.7500000000000001
 40
0.7500000000000001
 40
0.8333333333333335
 40
0.8333333333333335
 40
0.8333333333333335
 40
0.8333333333333335
 10
88.97635795572568
 20
268.6367839621697
 10
89.82342674477115
 20
268.6367839621697
 10
91.48731186611701
 20
268.667036418913
 10
94.0285182332459
 20
268.727541332415
 72
     4
 94
        3
 73
     0
 74
     0
 95
        8
 96
        4
 40
0.6666666666666666
 40
0.6666666666666666
 40
0.6666666666666666
 40
0.6666666666666666
 40
0.75
 40
0.75
 40
0.75
 40
0.75
 10
94.0285182332459
 20
268.727541332415
 10
96.57577509173007
 20
268.7940967372796
 10
98.66319460758894
 20
268.8243491940237
 10
100.2665748154267
 20
268.8243491940237
 97
        0
 75
     0
 76
     1
 47
0.1916132910719066
 98
        2
 10
111.9876554794003
 20
308.5062652657838
 10
111.9876554794003
 20
308.5062652657838
1001
ACAD
1010
-812.0205209991496
1020
-714.7606778567194
1030
0.0
  0
HATCH
  5
C0B
330
AEF
100
AcDbEntity
  8
0
100
AcDbHatch
 10
0.0
 20
0.0
 30
0.0
210
0.0
220
0.0
230
1.0
  2
SOLID
 70
     1
 71
     0
 91
        1
 92
        5
 93
       29
 72
     4
 94
        3
 73
     0
 74
     0
 95
        8
 96
        4
 40
0.0344827586206897
 40
0.0344827586206897
 40
0.0344827586206897
 40
0.0344827586206897
 40
0.0689655172413793
 40
0.0689655172413793
 40
0.0689655172413793
 40
0.0689655172413793
 10
273.2367869471765
 20
303.1091155694225
 10
273.2367869471765
 20
303.1091155694225
 10
273.2367869471765
 20
313.9999999999997
 10
273.2367869471765
 20
313.9999999999997
 72
     4
 94
        3
 73
     0
 74
     0
 95
        8
 96
        4
 40
0.0
 40
0.0
 40
0.0
 40
0.0
 40
0.0344827586206897
 40
0.0344827586206897
 40
0.0344827586206897
 40
0.0344827586206897
 10
273.2367869471765
 20
313.9999999999997
 10
273.2367869471765
 20
313.9999999999997
 10
214.1900418594204
 20
313.9999999999997
 10
214.1900418594204
 20
313.9999999999997
 72
     4
 94
        3
 73
     0
 74
     0
 95
        8
 96
        4
 40
0.9655172413793099
 40
0.9655172413793099
 40
0.9655172413793099
 40
0.9655172413793099
 40
1.0
 40
1.0
 40
1.0
 40
1.0
 10
214.1900418594204
 20
313.9999999999997
 10
214.1900418594204
 20
313.9999999999997
 10
214.1900418594204
 20
333.1047692998057
 10
214.1900418594204
 20
333.1047692998057
 72
     4
 94
        3
 73
     0
 74
     0
 95
        8
 96
        4
 40
0.9310344827586206
 40
0.9310344827586206
 40
0.9310344827586206
 40
0.9310344827586206
 40
0.9655172413793101
 40
0.9655172413793101
 40
0.9655172413793101
 40
0.9655172413793101
 10
214.1900418594204
 20
333.1047692998057
 10
214.1900418594204
 20
333.1047692998057
 10
201.4779595324079
 20
333.1047692998057
 10
201.4779595324079
 20
333.1047692998057
 72
     4
 94
        3
 73
     0
 74
     0
 95
        8
 96
        4
 40
0.8965517241379307
 40
0.8965517241379307
 40
0.8965517241379307
 40
0.8965517241379307
 40
0.9310344827586204
 40
0.9310344827586204
 40
0.9310344827586204
 40
0.9310344827586204
 10
201.4779595324079
 20
333.1047692998057
 10
201.4779595324079
 20
333.1047692998057
 10
201.4779595324079
 20
313.9999999999997
 10
201.4779595324079
 20
313.9999999999997
 72
     4
 94
        3
 73
     0
 74
     0
 95
        8
 96
        4
 40
0.8620689655172409
 40
0.8620689655172409
 40
0.8620689655172409
 40
0.8620689655172409
 40
0.8965517241379306
 40
0.8965517241379306
 40
0.8965517241379306
 40
0.8965517241379306
 10
201.4779595324079
 20
313.9999999999997
 10
201.4779595324079
 20
313.9999999999997
 10
180.8094810797231
 20
313.9999999999997
 10
180.8094810797231
 20
313.9999999999997
 72
     4
 94
        3
 73
     0
 74
     0
 95
        8
 96
        4
 40
0.8275862068965516
 40
0.8275862068965516
 40
0.8275862068965516
 40
0.8275862068965516
 40
0.8620689655172412
 40
0.8620689655172412
 40
0.8620689655172412
 40
0.8620689655172412
 10
180.8094810797231
 20
313.9999999999997
 10
180.8094810797231
 20
313.9999999999997
 10
180.8094810797231
 20
303.1091155694225
 10
180.8094810797231
 20
303.1091155694225
 72
     4
 94
        3
 73
     0
 74
     0
 95
        8
 96
        4
 40
0.7931034482758618
 40
0.7931034482758618
 40
0.7931034482758618
 40
0.7931034482758618
 40
0.8275862068965514
 40
0.8275862068965514
 40
0.8275862068965514
 40
0.8275862068965514
 10
180.8094810797231
 20
303.1091155694225
 10
180.8094810797231
 20
303.1091155694225
 10
201.4779595324079
 20
303.1091155694225
 10
201.4779595324079
 20
303.1091155694225
 72
     4
 94
        3
 73
     0
 74
     0
 95
        8
 96
        4
 40
0.7586206896551725
 40
0.7586206896551725
 40
0.7586206896551725
 40
0.7586206896551725
 40
0.793103448275862
 40
0.793103448275862
 40
0.793103448275862
 40
0.793103448275862
 10
201.4779595324079
 20
303.1091155694225
 10
201.4779595324079
 20
303.1091155694225
 10
201.4779595324079
 20
261.9509910200546
 10
201.4779595324079
 20
261.9509910200546
 72
     4
 94
        3
 73
     0
 74
     0
 95
        8
 96
        4
 40
0.7241379310344826
 40
0.7241379310344826
 40
0.7241379310344826
 40
0.7241379310344826
 40
0.7586206896551722
 40
0.7586206896551722
 40
0.7586206896551722
 40
0.7586206896551722
 10
201.4779595324079
 20
261.9509910200546
 10
201.4779595324079
 20
261.9509910200546
 10
201.4779595324079
 20
255.9307521264985
 10
201.4779595324079
 20
255.9307521264985
 72
     4
 94
        3
 73
     0
 74
     0
 95
        8
 96
        4
 40
0.6896551724137929
 40
0.6896551724137929
 40
0.6896551724137929
 40
0.6896551724137929
 40
0.7241379310344827
 40
0.7241379310344827
 40
0.7241379310344827
 40
0.7241379310344827
 10
201.4779595324079
 20
255.9307521264985
 10
201.4779595324079
 20
249.5111808038133
 10
202.4157856917057
 20
244.3380106992835
 10
204.2611855535577
 20
240.4293932869951
 72
     4
 94
        3
 73
     0
 74
     0
 95
        8
 96
        4
 40
0.6551724137931034
 40
0.6551724137931034
 40
0.6551724137931034
 40
0.6551724137931034
 40
0.6896551724137929
 40
0.6896551724137929
 40
0.6896551724137929
 40
0.6896551724137929
 10
204.2611855535577
 20
240.4293932869951
 10
206.1126359067439
 20
236.4965739092714
 10
208.7143471873809
 20
233.6225905178765
 10
212.0723698868112
 20
231.7469381992818
 72
     4
 94
        3
 73
     0
 74
     0
 95
        8
 96
        4
 40
0.6206896551724139
 40
0.6206896551724139
 40
0.6206896551724139
 40
0.6206896551724139
 40
0.6551724137931036
 40
0.6551724137931036
 40
0.6551724137931036
 40
0.6551724137931036
 10
212.0723698868112
 20
231.7469381992818
 10
215.4001401294896
 20
229.8712858806715
 10
219.2785050850396
 20
228.6309351538647
 10
223.6348588572759
 20
228.0863909323352
 72
     4
 94
        3
 73
     0
 74
     0
 95
        8
 96
        4
 40
0.5862068965517241
 40
0.5862068965517241
 40
0.5862068965517241
 40
0.5862068965517241
 40
0.6206896551724137
 40
0.6206896551724137
 40
0.6206896551724137
 40
0.6206896551724137
 10
223.6348588572759
 20
228.0863909323352
 10
227.9912126295054
 20
227.5055437627002
 10
233.3761499312849
 20
227.2393221432835
 10
239.7957212539706
 20
227.2393221432835
 72
     4
 94
        3
 73
     0
 74
     0
 95
        8
 96
        4
 40
0.5517241379310347
 40
0.5517241379310347
 40
0.5517241379310347
 40
0.5517241379310347
 40
0.5862068965517243
 40
0.5862068965517243
 40
0.5862068965517243
 40
0.5862068965517243
 10
239.7957212539706
 20
227.2393221432835
 10
248.2059042309201
 20
227.2393221432835
 10
254.8069902941115
 20
227.9290781572263
 10
259.6473833743613
 20
229.2964892023978
 72
     4
 94
        3
 73
     0
 74
     0
 95
        8
 96
        4
 40
0.5172413793103449
 40
0.5172413793103449
 40
0.5172413793103449
 40
0.5172413793103449
 40
0.5517241379310346
 40
0.5517241379310346
 40
0.5517241379310346
 40
0.5517241379310346
 10
259.6473833743613
 20
229.2964892023978
 10
264.4877764546123
 20
230.6881022129663
 10
267.9970614378023
 20
232.8057741855831
 10
270.2417937287712
 20
235.7402624904799
 72
     4
 94
        3
 73
     0
 74
     0
 95
        8
 96
        4
 40
0.4827586206896553
 40
0.4827586206896553
 40
0.4827586206896553
 40
0.4827586206896553
 40
0.5172413793103451
 40
0.5172413793103451
 40
0.5172413793103451
 40
0.5172413793103451
 10
270.2417937287712
 20
235.7402624904799
 10
272.4502230716404
 20
238.6444983386319
 10
273.872088538966
 20
242.3352980623221
 10
274.4771376739968
 20
246.8187121529238
 72
     4
 94
        3
 73
     0
 74
     0
 95
        8
 96
        4
 40
0.4482758620689656
 40
0.4482758620689656
 40
0.4482758620689656
 40
0.4482758620689656
 40
0.4827586206896554
 40
0.4827586206896554
 40
0.4827586206896554
 40
0.4827586206896554
 10
274.4771376739968
 20
246.8187121529238
 10
275.1124392657725
 20
251.3263282088934
 10
275.4149638332947
 20
257.7458995315932
 10
275.4149638332947
 20
266.1258300517857
 72
     4
 94
        3
 73
     0
 74
     0
 95
        8
 96
        4
 40
0.413793103448276
 40
0.413793103448276
 40
0.413793103448276
 40
0.413793103448276
 40
0.4482758620689655
 40
0.4482758620689655
 40
0.4482758620689655
 40
0.4482758620689655
 10
275.4149638332947
 20
266.1258300517857
 10
275.4149638332947
 20
266.1258300517857
 10
263.6407076655733
 20
266.1258300517857
 10
263.6407076655733
 20
266.1258300517857
 72
     4
 94
        3
 73
     0
 74
     0
 95
        8
 96
        4
 40
0.3793103448275863
 40
0.3793103448275863
 40
0.3793103448275863
 40
0.3793103448275863
 40
0.413793103448276
 40
0.413793103448276
 40
0.413793103448276
 40
0.413793103448276
 10
263.6407076655733
 20
266.1258300517857
 10
263.6407076655733
 20
265.0367416087265
 10
263.6709601223315
 20
263.4333614008957
 10
263.731465035826
 20
261.3156894282794
 72
     4
 94
        3
 73
     0
 74
     0
 95
        8
 96
        4
 40
0.3448275862068966
 40
0.3448275862068966
 40
0.3448275862068966
 40
0.3448275862068966
 40
0.3793103448275863
 40
0.3793103448275863
 40
0.3793103448275863
 40
0.3793103448275863
 10
263.731465035826
 20
261.3156894282794
 10
263.791969949335
 20
259.2282699124341
 10
263.8222224060855
 20
257.6248897045892
 10
263.8222224060855
 20
256.5055488047864
 72
     4
 94
        3
 73
     0
 74
     0
 95
        8
 96
        4
 40
0.3103448275862069
 40
0.3103448275862069
 40
0.3103448275862069
 40
0.3103448275862069
 40
0.3448275862068966
 40
0.3448275862068966
 40
0.3448275862068966
 40
0.3448275862068966
 10
263.8222224060855
 20
256.5055488047864
 10
263.8222224060855
 20
251.1750659251462
 10
262.7633864197769
 20
247.2119940906917
 10
260.6154619904104
 20
244.5800303533037
 72
     4
 94
        3
 73
     0
 74
     0
 95
        8
 96
        4
 40
0.2758620689655173
 40
0.2758620689655173
 40
0.2758620689655173
 40
0.2758620689655173
 40
0.3103448275862069
 40
0.3103448275862069
 40
0.3103448275862069
 40
0.3103448275862069
 10
260.6154619904104
 20
244.5800303533037
 10
258.4675375610568
 20
241.9783190726738
 10
255.6238066264061
 20
240.3083834599784
 10
252.0842691864639
 20
239.5883749892919
 72
     4
 94
        3
 73
     0
 74
     0
 95
        8
 96
        4
 40
0.2413793103448276
 40
0.2413793103448276
 40
0.2413793103448276
 40
0.2413793103448276
 40
0.2758620689655173
 40
0.2758620689655173
 40
0.2758620689655173
 40
0.2758620689655173
 10
252.0842691864639
 20
239.5883749892919
 10
248.5689337119311
 20
238.8562655359084
 10
243.9705602856882
 20
238.4932360548847
 10
238.373855786645
 20
238.4932360548847
 72
     4
 94
        3
 73
     0
 74
     0
 95
        8
 96
        4
 40
0.206896551724138
 40
0.206896551724138
 40
0.206896551724138
 40
0.206896551724138
 40
0.2413793103448276
 40
0.2413793103448276
 40
0.2413793103448276
 40
0.2413793103448276
 10
238.373855786645
 20
238.4932360548847
 10
231.803022180198
 20
238.4932360548847
 10
226.8416192729372
 20
239.1285376466741
 10
223.4533441167569
 20
240.3688883734803
 72
     4
 94
        3
 73
     0
 74
     0
 95
        8
 96
        4
 40
0.1724137931034483
 40
0.1724137931034483
 40
0.1724137931034483
 40
0.1724137931034483
 40
0.206896551724138
 40
0.206896551724138
 40
0.206896551724138
 40
0.206896551724138
 10
223.4533441167569
 20
240.3688883734803
 10
220.0892709259786
 20
241.6152895916497
 10
217.6993268426115
 20
243.8842238480264
 10
216.3077138320367
 20
247.2119940906917
 72
     4
 94
        3
 73
     0
 74
     0
 95
        8
 96
        4
 40
0.1379310344827586
 40
0.1379310344827586
 40
0.1379310344827586
 40
0.1379310344827586
 40
0.1724137931034483
 40
0.1724137931034483
 40
0.1724137931034483
 40
0.1724137931034483
 10
216.3077138320367
 20
247.2119940906917
 10
214.8858483647181
 20
250.5397643333705
 10
214.1900418594204
 20
255.4406623271224
 10
214.1900418594204
 20
261.9509910200546
 72
     4
 94
        3
 73
     0
 74
     0
 95
        8
 96
        4
 40
0.103448275862069
 40
0.103448275862069
 40
0.103448275862069
 40
0.103448275862069
 40
0.1379310344827586
 40
0.1379310344827586
 40
0.1379310344827586
 40
0.1379310344827586
 10
214.1900418594204
 20
261.9509910200546
 10
214.1900418594204
 20
261.9509910200546
 10
214.1900418594204
 20
303.1091155694225
 10
214.1900418594204
 20
303.1091155694225
 72
     4
 94
        3
 73
     0
 74
     0
 95
        8
 96
        4
 40
0.0689655172413793
 40
0.0689655172413793
 40
0.0689655172413793
 40
0.0689655172413793
 40
0.103448275862069
 40
0.103448275862069
 40
0.103448275862069
 40
0.103448275862069
 10
214.1900418594204
 20
303.1091155694225
 10
214.1900418594204
 20
303.1091155694225
 10
273.2367869471765
 20
303.1091155694225
 10
273.2367869471765
 20
303.1091155694225
 97
        0
 75
     0
 76
     1
 47
0.2127688363775205
 98
        1
 10
231.4166817882203
 20
305.2357596720963
1001
ACAD
1010
-671.1905189202712
1020
-714.7606778567192
1030
0.0
  0
HATCH
  5
C0C
330
AEF
100
AcDbEntity
  8
0
100
AcDbHatch
 10
0.0
 20
0.0
 30
0.0
210
0.0
220
0.0
230
1.0
  2
SOLID
 70
     1
 71
     0
 91
        2
 92
        5
 93
       27
 72
     4
 94
        3
 73
     0
 74
     0
 95
        8
 96
        4
 40
0.8148148148148145
 40
0.8148148148148145
 40
0.8148148148148145
 40
0.8148148148148145
 40
0.8518518518518513
 40
0.8518518518518513
 40
0.8518518518518513
 40
0.8518518518518513
 10
409.4453857440359
 20
308.4671685213174
 10
405.0285270583047
 20
310.9781224316882
 10
400.0308212029376
 20
312.6117550962768
 10
394.4341167038949
 20
313.3378140583251
 72
     4
 94
        3
 73
     0
 74
     0
 95
        8
 96
        4
 40
0.7777777777777775
 40
0.7777777777777775
 40
0.7777777777777775
 40
0.7777777777777775
 40
0.8148148148148145
 40
0.8148148148148145
 40
0.8148148148148145
 40
0.8148148148148145
 10
394.4341167038949
 20
313.3378140583251
 10
388.8616141702473
 20
314.063873020346
 10
380.5724410203083
 20
314.6447201899965
 10
369.5907992194856
 20
315.12875949801
 72
     4
 94
        3
 73
     0
 74
     0
 95
        8
 96
        4
 40
0.7407407407407405
 40
0.7407407407407405
 40
0.7407407407407405
 40
0.7407407407407405
 40
0.7777777777777775
 40
0.7777777777777775
 40
0.7777777777777775
 40
0.7777777777777775
 10
369.5907992194856
 20
315.12875949801
 10
368.6771750255902
 20
315.12875949801
 10
367.2855620150153
 20
315.1529614634052
 10
365.3494047829113
 20
315.2134663769199
 72
     4
 94
        3
 73
     0
 74
     0
 95
        8
 96
        4
 40
0.7037037037037035
 40
0.7037037037037035
 40
0.7037037037037035
 40
0.7037037037037035
 40
0.7407407407407405
 40
0.7407407407407405
 40
0.7407407407407405
 40
0.7407407407407405
 10
365.3494047829113
 20
315.2134663769199
 10
363.4435000075655
 20
315.2739712904219
 10
361.9308771699867
 20
315.3042237471797
 10
360.8417887269276
 20
315.3042237471797
 72
     4
 94
        3
 73
     0
 74
     0
 95
        8
 96
        4
 40
0.6666666666666666
 40
0.6666666666666666
 40
0.6666666666666666
 40
0.6666666666666666
 40
0.7037037037037035
 40
0.7037037037037035
 40
0.7037037037037035
 40
0.7037037037037035
 10
360.8417887269276
 20
315.3042237471797
 10
351.8507585803557
 20
315.3042237471797
 10
344.4691591329632
 20
314.6447201899965
 10
338.6304349799138
 20
313.3378140583251
 72
     4
 94
        3
 73
     0
 74
     0
 95
        8
 96
        4
 40
0.6296296296296296
 40
0.6296296296296296
 40
0.6296296296296296
 40
0.6296296296296296
 40
0.6666666666666666
 40
0.6666666666666666
 40
0.6666666666666666
 40
0.6666666666666666
 10
338.6304349799138
 20
313.3378140583251
 10
332.8159127922452
 20
312.0067059612458
 10
328.0965295390054
 20
309.7377717048673
 10
324.4904366942202
 20
306.5310112892065
 72
     4
 94
        3
 73
     0
 74
     0
 95
        8
 96
        4
 40
0.5925925925925926
 40
0.5925925925925926
 40
0.5925925925925926
 40
0.5925925925925926
 40
0.6296296296296296
 40
0.6296296296296296
 40
0.6296296296296296
 40
0.6296296296296296
 10
324.4904366942202
 20
306.5310112892065
 10
320.8903943407765
 20
303.293998416787
 10
318.2584306033883
 20
298.8408367829427
 10
316.6247979387995
 20
293.1533749136537
 72
     4
 94
        3
 73
     0
 74
     0
 95
        8
 96
        4
 40
0.5555555555555556
 40
0.5555555555555556
 40
0.5555555555555556
 40
0.5555555555555556
 40
0.5925925925925926
 40
0.5925925925925926
 40
0.5925925925925926
 40
0.5925925925925926
 10
316.6247979387995
 20
293.1533749136537
 10
314.9911652742117
 20
287.4356605876079
 10
314.1743489419237
 20
280.0480106488666
 10
314.1743489419237
 20
270.9722736233983
 72
     4
 94
        3
 73
     0
 74
     0
 95
        8
 96
        4
 40
0.5185185185185184
 40
0.5185185185185184
 40
0.5185185185185184
 40
0.5185185185185184
 40
0.5555555555555555
 40
0.5555555555555555
 40
0.5555555555555555
 40
0.5555555555555555
 10
314.1743489419237
 20
270.9722736233983
 10
314.1743489419237
 20
260.4686206392405
 10
315.5962144092423
 20
252.1733969979591
 10
318.4399453438934
 20
246.0926531908756
 72
     4
 94
        3
 73
     0
 74
     0
 95
        8
 96
        4
 40
0.4814814814814815
 40
0.4814814814814815
 40
0.4814814814814815
 40
0.4814814814814815
 40
0.5185185185185186
 40
0.5185185185185186
 40
0.5185185185185186
 40
0.5185185185185186
 10
318.4399453438934
 20
246.0926531908756
 10
321.2534238217934
 20
240.0058588924562
 10
325.283051061112
 20
235.6495051202343
 10
330.4562211656356
 20
233.0175413828318
 72
     4
 94
        3
 73
     0
 74
     0
 95
        8
 96
        4
 40
0.4444444444444445
 40
0.4444444444444445
 40
0.4444444444444445
 40
0.4444444444444445
 40
0.4814814814814815
 40
0.4814814814814815
 40
0.4814814814814815
 40
0.4814814814814815
 10
330.4562211656356
 20
233.0175413828318
 10
335.6596437268966
 20
230.3855776454569
 10
341.4439134578064
 20
228.7519449808682
 10
347.827181832386
 20
228.1468958458372
 72
     4
 94
        3
 73
     0
 74
     0
 95
        8
 96
        4
 40
0.4074074074074075
 40
0.4074074074074075
 40
0.4074074074074075
 40
0.4074074074074075
 40
0.4444444444444445
 40
0.4444444444444445
 40
0.4444444444444445
 40
0.4444444444444445
 10
347.827181832386
 20
228.1468958458372
 10
354.2407026637369
 20
227.5357962194712
 10
363.1107229832916
 20
227.2393221432831
 10
374.4614447564937
 20
227.2393221432831
 72
     4
 94
        3
 73
     0
 74
     0
 95
        8
 96
        4
 40
0.3703703703703704
 40
0.3703703703703704
 40
0.3703703703703704
 40
0.3703703703703704
 40
0.4074074074074074
 40
0.4074074074074074
 40
0.4074074074074074
 40
0.4074074074074074
 10
374.4614447564937
 20
227.2393221432831
 10
383.4161719549596
 20
227.2393221432831
 10
391.2576087449778
 20
227.7475634167203
 10
398.0644115140827
 20
228.8124498943697
 72
     4
 94
        3
 73
     0
 74
     0
 95
        8
 96
        4
 40
0.3333333333333333
 40
0.3333333333333333
 40
0.3333333333333333
 40
0.3333333333333333
 40
0.3703703703703704
 40
0.3703703703703704
 40
0.3703703703703704
 40
0.3703703703703704
 10
398.0644115140827
 20
228.8124498943697
 10
404.8470123177851
 20
229.8712858806711
 10
410.6554840140979
 20
232.3519873343129
 10
415.5563820078503
 20
236.315059168766
 72
     4
 94
        3
 73
     0
 74
     0
 95
        8
 96
        4
 40
0.2962962962962962
 40
0.2962962962962962
 40
0.2962962962962962
 40
0.2962962962962962
 40
0.3333333333333333
 40
0.3333333333333333
 40
0.3333333333333333
 40
0.3333333333333333
 10
415.5563820078503
 20
236.315059168766
 10
420.4572800016082
 20
240.2781310032201
 10
422.9137794898334
 20
246.2136630178922
 10
422.9440319465907
 20
254.1458571781495
 72
     4
 94
        3
 73
     0
 74
     0
 95
        8
 96
        4
 40
0.2592592592592592
 40
0.2592592592592592
 40
0.2592592592592592
 40
0.2592592592592592
 40
0.2962962962962963
 40
0.2962962962962963
 40
0.2962962962962963
 40
0.2962962962962963
 10
422.9440319465907
 20
254.1458571781495
 10
422.9440319465907
 20
254.1458571781495
 10
409.5058906575306
 20
254.1458571781495
 10
409.5058906575306
 20
254.1458571781495
 72
     4
 94
        3
 73
     0
 74
     0
 95
        8
 96
        4
 40
0.2222222222222222
 40
0.2222222222222222
 40
0.2222222222222222
 40
0.2222222222222222
 40
0.2592592592592592
 40
0.2592592592592592
 40
0.2592592592592592
 40
0.2592592592592592
 10
409.5058906575306
 20
254.1458571781495
 10
408.9310939792572
 20
248.0288104229859
 10
406.1176155013566
 20
243.8539713912554
 10
401.1259601373457
 20
241.6152895916497
 72
     4
 94
        3
 73
     0
 74
     0
 95
        8
 96
        4
 40
0.1851851851851852
 40
0.1851851851851852
 40
0.1851851851851852
 40
0.1851851851851852
 40
0.2222222222222222
 40
0.2222222222222222
 40
0.2222222222222222
 40
0.2222222222222222
 10
401.1259601373457
 20
241.6152895916497
 10
396.370273935992
 20
239.5278700757899
 10
388.0205958725509
 20
238.4932360548843
 10
376.0950774210824
 20
238.4932360548843
 72
     4
 94
        3
 73
     0
 74
     0
 95
        8
 96
        4
 40
0.1481481481481481
 40
0.1481481481481481
 40
0.1481481481481481
 40
0.1481481481481481
 40
0.1851851851851852
 40
0.1851851851851852
 40
0.1851851851851852
 40
0.1851851851851852
 10
376.0950774210824
 20
238.4932360548843
 10
376.0950774210824
 20
238.4932360548843
 10
369.1612143336178
 20
238.4932360548843
 10
369.1612143336178
 20
238.4932360548843
 72
     4
 94
        3
 73
     0
 74
     0
 95
        8
 96
        4
 40
0.1111111111111111
 40
0.1111111111111111
 40
0.1111111111111111
 40
0.1111111111111111
 40
0.1481481481481481
 40
0.1481481481481481
 40
0.1481481481481481
 40
0.1481481481481481
 10
369.1612143336178
 20
238.4932360548843
 10
358.1795725327818
 20
238.4932360548843
 10
350.0658636320125
 20
239.0377802764139
 10
344.8926935274893
 20
240.1268687194729
 72
     4
 94
        3
 73
     0
 74
     0
 95
        8
 96
        4
 40
0.0740740740740741
 40
0.0740740740740741
 40
0.0740740740740741
 40
0.0740740740740741
 40
0.1111111111111111
 40
0.1111111111111111
 40
0.1111111111111111
 40
0.1111111111111111
 10
344.8926935274893
 20
240.1268687194729
 10
337.5958009590073
 20
241.6455420483929
 10
332.846165249003
 20
244.7312926370508
 10
330.5772309926323
 20
249.3599185200511
 72
     4
 94
        3
 73
     0
 74
     0
 95
        8
 96
        4
 40
0.037037037037037
 40
0.037037037037037
 40
0.037037037037037
 40
0.037037037037037
 40
0.0740740740740741
 40
0.0740740740740741
 40
0.0740740740740741
 40
0.0740740740740741
 10
330.5772309926323
 20
249.3599185200511
 10
328.3385491930194
 20
253.9885444030387
 10
327.0981984662062
 20
260.5593780095003
 10
326.8864312689361
 20
269.0058639345419
 72
     4
 94
        3
 73
     0
 74
     0
 95
        8
 96
        4
 40
0.0
 40
0.0
 40
0.0
 40
0.0
 40
0.037037037037037
 40
0.037037037037037
 40
0.037037037037037
 40
0.037037037037037
 10
326.8864312689361
 20
269.0058639345419
 10
326.8864312689361
 20
269.0058639345419
 10
422.9440319465907
 20
269.0058639345419
 10
422.9440319465907
 20
269.0058639345419
 72
     4
 94
        3
 73
     0
 74
     0
 95
        8
 96
        4
 40
0.9629629629629622
 40
0.9629629629629622
 40
0.9629629629629622
 40
0.9629629629629622
 40
1.0
 40
1.0
 40
1.0
 40
1.0
 10
422.9440319465907
 20
269.0058639345419
 10
422.9440319465907
 20
269.4838527512082
 10
422.9742844033417
 20
270.209911713256
 10
423.0347893168509
 20
271.1840408206601
 72
     4
 94
        3
 73
     0
 74
     0
 95
        8
 96
        4
 40
0.9259259259259254
 40
0.9259259259259254
 40
0.9259259259259254
 40
0.9259259259259254
 40
0.9629629629629622
 40
0.9629629629629622
 40
0.9629629629629622
 40
0.9629629629629622
 10
423.0347893168509
 20
271.1840408206601
 10
423.0952942303525
 20
272.1521194367026
 10
423.1255466871035
 20
272.8781783987508
 10
423.1255466871035
 20
273.3864196721595
 72
     4
 94
        3
 73
     0
 74
     0
 95
        8
 96
        4
 40
0.8888888888888883
 40
0.8888888888888883
 40
0.8888888888888883
 40
0.8888888888888883
 40
0.9259259259259254
 40
0.9259259259259254
 40
0.9259259259259254
 40
0.9259259259259254
 10
423.1255466871035
 20
273.3864196721595
 10
423.1255466871035
 20
283.1640136942823
 10
421.9457008737919
 20
290.8239357437746
 10
419.5860092471618
 20
296.3601353293292
 72
     4
 94
        3
 73
     0
 74
     0
 95
        8
 96
        4
 40
0.8518518518518513
 40
0.8518518518518513
 40
0.8518518518518513
 40
0.8518518518518513
 40
0.8888888888888883
 40
0.8888888888888883
 40
0.8888888888888883
 40
0.8888888888888883
 10
419.5860092471618
 20
296.3601353293292
 10
417.2505195859401
 20
301.902385406219
 10
413.8622444297661
 20
305.9259621541877
 10
409.4453857440359
 20
308.4671685213174
 97
        0
 92
       20
 93
       10
 72
     4
 94
        3
 73
     0
 74
     0
 95
        8
 96
        4
 40
0.2999999999999999
 40
0.2999999999999999
 40
0.2999999999999999
 40
0.2999999999999999
 40
0.4
 40
0.4
 40
0.4
 40
0.4
 10
374.79422178076
 20
303.8687950950734
 10
381.3892573526022
 20
303.8687950950734
 10
387.2582339624169
 20
303.4452607005478
 10
392.376949644787
 20
302.5981919114958
 72
     4
 94
        3
 73
     0
 74
     0
 95
        8
 96
        4
 40
0.2
 40
0.2
 40
0.2
 40
0.2
 40
0.3
 40
0.3
 40
0.3
 40
0.3
 10
392.376949644787
 20
302.5981919114958
 10
397.4896148358021
 20
301.7208706657003
 10
401.452686670263
 20
299.9662281741222
 10
404.2419631827613
 20
297.2979614886265
 72
     4
 94
        3
 73
     0
 74
     0
 95
        8
 96
        4
 40
0.1
 40
0.1
 40
0.1
 40
0.1
 40
0.2
 40
0.2
 40
0.2
 40
0.2
 10
404.2419631827613
 20
297.2979614886265
 10
406.4806449823743
 20
295.331551799772
 10
407.9630153632017
 20
292.9416077163913
 10
408.6285694117415
 20
290.188634152
 72
     4
 94
        3
 73
     0
 74
     0
 95
        8
 96
        4
 40
0.0
 40
0.0
 40
0.0
 40
0.0
 40
0.1
 40
0.1
 40
0.1
 40
0.1
 10
408.6285694117415
 20
290.188634152
 10
409.3243759170251
 20
287.4054081308501
 10
409.7479103115444
 20
283.9808300265765
 10
409.8689201385546
 20
279.8967483651058
 72
     4
 94
        3
 73
     0
 74
     0
 95
        8
 96
        4
 40
0.9
 40
0.9
 40
0.9
 40
0.9
 40
1.0
 40
1.0
 40
1.0
 40
1.0
 10
409.8689201385546
 20
279.8967483651058
 10
409.8689201385546
 20
279.8967483651058
 10
327.2494607499603
 20
279.8967483651058
 10
327.2494607499603
 20
279.8967483651058
 72
     4
 94
        3
 73
     0
 74
     0
 95
        8
 96
        4
 40
0.7999999999999999
 40
0.7999999999999999
 40
0.7999999999999999
 40
0.7999999999999999
 40
0.8999999999999998
 40
0.8999999999999998
 40
0.8999999999999998
 40
0.8999999999999998
 10
327.2494607499603
 20
279.8967483651058
 10
327.4914804039747
 20
284.0413349400917
 10
327.9755197119953
 20
287.526417957854
 10
328.7015786740303
 20
290.3398964357471
 72
     4
 94
        3
 73
     0
 74
     0
 95
        8
 96
        4
 40
0.7000000000000001
 40
0.7000000000000001
 40
0.7000000000000001
 40
0.7000000000000001
 40
0.8
 40
0.8
 40
0.8
 40
0.8
 10
328.7015786740303
 20
290.3398964357471
 10
329.4276376360786
 20
293.1533749136537
 10
330.9402604736569
 20
295.5433189970357
 10
333.2091947300271
 20
297.479476229146
 72
     4
 94
        3
 73
     0
 74
     0
 95
        8
 96
        4
 40
0.5999999999999999
 40
0.5999999999999999
 40
0.5999999999999999
 40
0.5999999999999999
 40
0.6999999999999999
 40
0.6999999999999999
 40
0.6999999999999999
 40
0.6999999999999999
 10
333.2091947300271
 20
297.479476229146
 10
336.3554502321869
 20
300.1477429146135
 10
340.6270971255131
 20
301.8721329494612
 10
346.0422868840499
 20
302.6526463336496
 72
     4
 94
        3
 73
     0
 74
     0
 95
        8
 96
        4
 40
0.5000000000000001
 40
0.5000000000000001
 40
0.5000000000000001
 40
0.5000000000000001
 40
0.6000000000000001
 40
0.6000000000000001
 40
0.6000000000000001
 40
0.6000000000000001
 10
346.0422868840499
 20
302.6526463336496
 10
351.4272241858299
 20
303.4755131573056
 10
357.6894827334057
 20
303.8687950950734
 10
364.8351130181327
 20
303.8687950950734
 72
     4
 94
        3
 73
     0
 74
     0
 95
        8
 96
        4
 40
0.4
 40
0.4
 40
0.4
 40
0.4
 40
0.5
 40
0.5
 40
0.5
 40
0.5
 10
364.8351130181327
 20
303.8687950950734
 10
364.8351130181327
 20
303.8687950950734
 10
374.79422178076
 20
303.8687950950734
 10
374.79422178076
 20
303.8687950950734
 97
        0
 75
     0
 76
     1
 47
0.2127688363775202
 98
        2
 10
388.4977167541525
 20
308.4102868864446
 10
388.4977167541525
 20
308.4102868864446
1001
ACAD
1010
-537.8256510580659
1020
-714.7606778567197
1030
0.0
  0
HATCH
  5
C0D
330
AEF
100
AcDbEntity
  8
0
100
AcDbHatch
 10
0.0
 20
0.0
 30
0.0
210
0.0
220
0.0
230
1.0
  2
SOLID
 70
     1
 71
     0
 91
        3
 92
        5
 93
        4
 72
     4
 94
        3
 73
     0
 74
     0
 95
        8
 96
        4
 40
0.25
 40
0.25
 40
0.25
 40
0.25
 40
0.5
 40
0.5
 40
0.5
 40
0.5
 10
484.9084913603943
 20
228.0000000000027
 10
484.9084913603943
 20
228.0000000000027
 10
484.908491360394
 20
350.7480020773343
 10
484.908491360394
 20
350.7480020773343
 72
     4
 94
        3
 73
     0
 74
     0
 95
        8
 96
        4
 40
0.0
 40
0.0
 40
0.0
 40
0.0
 40
0.25
 40
0.25
 40
0.25
 40
0.25
 10
484.908491360394
 20
350.7480020773343
 10
484.908491360394
 20
350.7480020773343
 10
472.1964090333815
 20
350.7480020773343
 10
472.1964090333815
 20
350.7480020773343
 72
     4
 94
        3
 73
     0
 74
     0
 95
        8
 96
        4
 40
0.75
 40
0.75
 40
0.75
 40
0.75
 40
1.0
 40
1.0
 40
1.0
 40
1.0
 10
472.1964090333815
 20
350.7480020773343
 10
472.1964090333815
 20
350.7480020773343
 10
472.1964090333815
 20
228.0000000000027
 10
472.1964090333815
 20
228.0000000000027
 72
     4
 94
        3
 73
     0
 74
     0
 95
        8
 96
        4
 40
0.5
 40
0.5
 40
0.5
 40
0.5
 40
0.75
 40
0.75
 40
0.75
 40
0.75
 10
472.1964090333815
 20
228.0000000000027
 10
472.1964090333815
 20
228.0000000000027
 10
484.9084913603943
 20
228.0000000000027
 10
484.9084913603943
 20
228.0000000000027
 97
        0
 92
        5
 93
        4
 72
     4
 94
        3
 73
     0
 74
     0
 95
        8
 96
        4
 40
0.25
 40
0.25
 40
0.25
 40
0.25
 40
0.5
 40
0.5
 40
0.5
 40
0.5
 10
549.9116325738234
 20
334.7989068778955
 10
549.9116325738234
 20
334.7989068778955
 10
549.9116325738234
 20
350.7480020773343
 10
549.9116325738234
 20
350.7480020773343
 72
     4
 94
        3
 73
     0
 74
     0
 95
        8
 96
        4
 40
0.0
 40
0.0
 40
0.0
 40
0.0
 40
0.25
 40
0.25
 40
0.25
 40
0.25
 10
549.9116325738234
 20
350.7480020773343
 10
549.9116325738234
 20
350.7480020773343
 10
537.1995502467975
 20
350.7480020773343
 10
537.1995502467975
 20
350.7480020773343
 72
     4
 94
        3
 73
     0
 74
     0
 95
        8
 96
        4
 40
0.75
 40
0.75
 40
0.75
 40
0.75
 40
1.0
 40
1.0
 40
1.0
 40
1.0
 10
537.1995502467975
 20
350.7480020773343
 10
537.1995502467975
 20
350.7480020773343
 10
537.1995502467975
 20
334.7989068778955
 10
537.1995502467975
 20
334.7989068778955
 72
     4
 94
        3
 73
     0
 74
     0
 95
        8
 96
        4
 40
0.5
 40
0.5
 40
0.5
 40
0.5
 40
0.75
 40
0.75
 40
0.75
 40
0.75
 10
537.1995502467975
 20
334.7989068778955
 10
537.1995502467975
 20
334.7989068778955
 10
549.9116325738234
 20
334.7989068778955
 10
549.9116325738234
 20
334.7989068778955
 97
        0
 92
        5
 93
        4
 72
     4
 94
        3
 73
     0
 74
     0
 95
        8
 96
        4
 40
0.25
 40
0.25
 40
0.25
 40
0.25
 40
0.5
 40
0.5
 40
0.5
 40
0.5
 10
549.9116325738234
 20
228.0000000000027
 10
549.9116325738234
 20
228.0000000000027
 10
549.9116325738234
 20
313.9999999999997
 10
549.9116325738234
 20
313.9999999999997
 72
     4
 94
        3
 73
     0
 74
     0
 95
        8
 96
        4
 40
0.0
 40
0.0
 40
0.0
 40
0.0
 40
0.25
 40
0.25
 40
0.25
 40
0.25
 10
549.9116325738234
 20
313.9999999999997
 10
549.9116325738234
 20
313.9999999999997
 10
537.1995502467978
 20
313.9999999999997
 10
537.1995502467978
 20
313.9999999999997
 72
     4
 94
        3
 73
     0
 74
     0
 95
        8
 96
        4
 40
0.75
 40
0.75
 40
0.75
 40
0.75
 40
1.0
 40
1.0
 40
1.0
 40
1.0
 10
537.1995502467978
 20
313.9999999999997
 10
537.1995502467978
 20
313.9999999999997
 10
537.1995502467973
 20
228.0000000000027
 10
537.1995502467973
 20
228.0000000000027
 72
     4
 94
        3
 73
     0
 74
     0
 95
        8
 96
        4
 40
0.5
 40
0.5
 40
0.5
 40
0.5
 40
0.75
 40
0.75
 40
0.75
 40
0.75
 10
537.1995502467973
 20
228.0000000000027
 10
537.1995502467973
 20
228.0000000000027
 10
549.9116325738234
 20
228.0000000000027
 10
549.9116325738234
 20
228.0000000000027
 97
        0
 75
     0
 76
     1
 47
0.3002294316317904
 98
        3
 10
480.116320566799
 20
334.8743807839322
 10
545.0272404805696
 20
342.0798854769168
 10
544.4262176858297
 20
302.1493707654923
1001
ACAD
1010
-379.8035909666023
1020
-714.0
1030
0.0
  0
HATCH
  5
C0E
330
AEF
100
AcDbEntity
  8
0
100
AcDbHatch
 10
0.0
 20
0.0
 30
0.0
210
0.0
220
0.0
230
1.0
  2
SOLID
 70
     1
 71
     0
 91
        2
 92
        5
 93
       27
 72
     4
 94
        3
 73
     0
 74
     0
 95
        8
 96
        4
 40
0.8148148148148145
 40
0.8148148148148145
 40
0.8148148148148145
 40
0.8148148148148145
 40
0.8518518518518513
 40
0.8518518518518513
 40
0.8518518518518513
 40
0.8518518518518513
 10
694.9627743519478
 20
308.4671685213174
 10
690.5459156662163
 20
310.9781224316887
 10
685.5482098108632
 20
312.6117550962773
 10
679.9515053118205
 20
313.3378140583255
 72
     4
 94
        3
 73
     0
 74
     0
 95
        8
 96
        4
 40
0.7777777777777775
 40
0.7777777777777775
 40
0.7777777777777775
 40
0.7777777777777775
 40
0.8148148148148145
 40
0.8148148148148145
 40
0.8148148148148145
 40
0.8148148148148145
 10
679.9515053118205
 20
313.3378140583255
 10
674.3790027781733
 20
314.0638730203465
 10
666.0898296282332
 20
314.6447201899965
 10
655.1081878274114
 20
315.12875949801
 72
     4
 94
        3
 73
     0
 74
     0
 95
        8
 96
        4
 40
0.7407407407407405
 40
0.7407407407407405
 40
0.7407407407407405
 40
0.7407407407407405
 40
0.7777777777777775
 40
0.7777777777777775
 40
0.7777777777777775
 40
0.7777777777777775
 10
655.1081878274114
 20
315.12875949801
 10
654.1945636335087
 20
315.12875949801
 10
652.8029506229411
 20
315.1529614634057
 10
650.8667933908367
 20
315.2134663769203
 72
     4
 94
        3
 73
     0
 74
     0
 95
        8
 96
        4
 40
0.7037037037037035
 40
0.7037037037037035
 40
0.7037037037037035
 40
0.7037037037037035
 40
0.7407407407407405
 40
0.7407407407407405
 40
0.7407407407407405
 40
0.7407407407407405
 10
650.8667933908367
 20
315.2134663769203
 10
648.9608886154904
 20
315.2739712904223
 10
647.4482657778985
 20
315.3042237471801
 10
646.3591773348534
 20
315.3042237471801
 72
     4
 94
        3
 73
     0
 74
     0
 95
        8
 96
        4
 40
0.6666666666666666
 40
0.6666666666666666
 40
0.6666666666666666
 40
0.6666666666666666
 40
0.7037037037037035
 40
0.7037037037037035
 40
0.7037037037037035
 40
0.7037037037037035
 10
646.3591773348534
 20
315.3042237471801
 10
637.3681471882811
 20
315.3042237471801
 10
629.9865477408886
 20
314.6447201899965
 10
624.1478235878318
 20
313.3378140583255
 72
     4
 94
        3
 73
     0
 74
     0
 95
        8
 96
        4
 40
0.6296296296296296
 40
0.6296296296296296
 40
0.6296296296296296
 40
0.6296296296296296
 40
0.6666666666666666
 40
0.6666666666666666
 40
0.6666666666666666
 40
0.6666666666666666
 10
624.1478235878318
 20
313.3378140583255
 10
618.3333014001711
 20
312.0067059612458
 10
613.6139181469238
 20
309.7377717048678
 10
610.0078253021388
 20
306.5310112892065
 72
     4
 94
        3
 73
     0
 74
     0
 95
        8
 96
        4
 40
0.5925925925925926
 40
0.5925925925925926
 40
0.5925925925925926
 40
0.5925925925925926
 40
0.6296296296296296
 40
0.6296296296296296
 40
0.6296296296296296
 40
0.6296296296296296
 10
610.0078253021388
 20
306.5310112892065
 10
606.4077829486947
 20
303.2939984167874
 10
603.7758192113139
 20
298.8408367829422
 10
602.1421865467255
 20
293.1533749136537
 72
     4
 94
        3
 73
     0
 74
     0
 95
        8
 96
        4
 40
0.5555555555555556
 40
0.5555555555555556
 40
0.5555555555555556
 40
0.5555555555555556
 40
0.5925925925925926
 40
0.5925925925925926
 40
0.5925925925925926
 40
0.5925925925925926
 10
602.1421865467255
 20
293.1533749136537
 10
600.5085538821366
 20
287.4356605876084
 10
599.6917375498423
 20
280.0480106488661
 10
599.6917375498423
 20
270.9722736233979
 72
     4
 94
        3
 73
     0
 74
     0
 95
        8
 96
        4
 40
0.5185185185185184
 40
0.5185185185185184
 40
0.5185185185185184
 40
0.5185185185185184
 40
0.5555555555555555
 40
0.5555555555555555
 40
0.5555555555555555
 40
0.5555555555555555
 10
599.6917375498423
 20
270.9722736233979
 10
599.6917375498423
 20
260.4686206392405
 10
601.113603017168
 20
252.1733969979591
 10
603.957333951819
 20
246.0926531908751
 72
     4
 94
        3
 73
     0
 74
     0
 95
        8
 96
        4
 40
0.4814814814814815
 40
0.4814814814814815
 40
0.4814814814814815
 40
0.4814814814814815
 40
0.5185185185185186
 40
0.5185185185185186
 40
0.5185185185185186
 40
0.5185185185185186
 10
603.957333951819
 20
246.0926531908751
 10
606.7708124297125
 20
240.0058588924562
 10
610.800439669024
 20
235.6495051202338
 10
615.9736097735471
 20
233.0175413828323
 72
     4
 94
        3
 73
     0
 74
     0
 95
        8
 96
        4
 40
0.4444444444444445
 40
0.4444444444444445
 40
0.4444444444444445
 40
0.4444444444444445
 40
0.4814814814814815
 40
0.4814814814814815
 40
0.4814814814814815
 40
0.4814814814814815
 10
615.9736097735471
 20
233.0175413828323
 10
621.1770323348217
 20
230.3855776454569
 10
626.9613020657323
 20
228.7519449808682
 10
633.3445704403116
 20
228.1468958458368
 72
     4
 94
        3
 73
     0
 74
     0
 95
        8
 96
        4
 40
0.4074074074074075
 40
0.4074074074074075
 40
0.4074074074074075
 40
0.4074074074074075
 40
0.4444444444444445
 40
0.4444444444444445
 40
0.4444444444444445
 40
0.4444444444444445
 10
633.3445704403116
 20
228.1468958458368
 10
639.7580912716486
 20
227.5357962194716
 10
648.6281115912167
 20
227.2393221432835
 10
659.9788333644124
 20
227.2393221432835
 72
     4
 94
        3
 73
     0
 74
     0
 95
        8
 96
        4
 40
0.3703703703703704
 40
0.3703703703703704
 40
0.3703703703703704
 40
0.3703703703703704
 40
0.4074074074074074
 40
0.4074074074074074
 40
0.4074074074074074
 40
0.4074074074074074
 10
659.9788333644124
 20
227.2393221432835
 10
668.9335605628849
 20
227.2393221432835
 10
676.7749973529029
 20
227.7475634167208
 10
683.5818001220083
 20
228.8124498943702
 72
     4
 94
        3
 73
     0
 74
     0
 95
        8
 96
        4
 40
0.3333333333333333
 40
0.3333333333333333
 40
0.3333333333333333
 40
0.3333333333333333
 40
0.3703703703703704
 40
0.3703703703703704
 40
0.3703703703703704
 40
0.3703703703703704
 10
683.5818001220083
 20
228.8124498943702
 10
690.3644009257117
 20
229.8712858806715
 10
696.1728726220241
 20
232.3519873343133
 10
701.0737706157757
 20
236.315059168766
 72
     4
 94
        3
 73
     0
 74
     0
 95
        8
 96
        4
 40
0.2962962962962962
 40
0.2962962962962962
 40
0.2962962962962962
 40
0.2962962962962962
 40
0.3333333333333333
 40
0.3333333333333333
 40
0.3333333333333333
 40
0.3333333333333333
 10
701.0737706157757
 20
236.315059168766
 10
705.9746686095348
 20
240.2781310032206
 10
708.431168097759
 20
246.2136630178918
 10
708.4614205545173
 20
254.1458571781491
 72
     4
 94
        3
 73
     0
 74
     0
 95
        8
 96
        4
 40
0.2592592592592592
 40
0.2592592592592592
 40
0.2592592592592592
 40
0.2592592592592592
 40
0.2962962962962963
 40
0.2962962962962963
 40
0.2962962962962963
 40
0.2962962962962963
 10
708.4614205545173
 20
254.1458571781491
 10
708.4614205545173
 20
254.1458571781491
 10
695.0232792654561
 20
254.1458571781491
 10
695.0232792654561
 20
254.1458571781491
 72
     4
 94
        3
 73
     0
 74
     0
 95
        8
 96
        4
 40
0.2222222222222222
 40
0.2222222222222222
 40
0.2222222222222222
 40
0.2222222222222222
 40
0.2592592592592592
 40
0.2592592592592592
 40
0.2592592592592592
 40
0.2592592592592592
 10
695.0232792654561
 20
254.1458571781491
 10
694.4484825871754
 20
248.0288104229863
 10
691.6350041092755
 20
243.8539713912554
 10
686.6433487452709
 20
241.6152895916492
 72
     4
 94
        3
 73
     0
 74
     0
 95
        8
 96
        4
 40
0.1851851851851852
 40
0.1851851851851852
 40
0.1851851851851852
 40
0.1851851851851852
 40
0.2222222222222222
 40
0.2222222222222222
 40
0.2222222222222222
 40
0.2222222222222222
 10
686.6433487452709
 20
241.6152895916492
 10
681.8876625439176
 20
239.5278700757899
 10
673.5379844804765
 20
238.4932360548843
 10
661.612466029001
 20
238.4932360548843
 72
     4
 94
        3
 73
     0
 74
     0
 95
        8
 96
        4
 40
0.1481481481481481
 40
0.1481481481481481
 40
0.1481481481481481
 40
0.1481481481481481
 40
0.1851851851851852
 40
0.1851851851851852
 40
0.1851851851851852
 40
0.1851851851851852
 10
661.612466029001
 20
238.4932360548843
 10
661.612466029001
 20
238.4932360548843
 10
654.6786029415436
 20
238.4932360548843
 10
654.6786029415436
 20
238.4932360548843
 72
     4
 94
        3
 73
     0
 74
     0
 95
        8
 96
        4
 40
0.1111111111111111
 40
0.1111111111111111
 40
0.1111111111111111
 40
0.1111111111111111
 40
0.1481481481481481
 40
0.1481481481481481
 40
0.1481481481481481
 40
0.1481481481481481
 10
654.6786029415436
 20
238.4932360548843
 10
643.6969611407074
 20
238.4932360548843
 10
635.5832522399311
 20
239.0377802764139
 10
630.4100821354073
 20
240.1268687194729
 72
     4
 94
        3
 73
     0
 74
     0
 95
        8
 96
        4
 40
0.0740740740740741
 40
0.0740740740740741
 40
0.0740740740740741
 40
0.0740740740740741
 40
0.1111111111111111
 40
0.1111111111111111
 40
0.1111111111111111
 40
0.1111111111111111
 10
630.4100821354073
 20
240.1268687194729
 10
623.1131895669264
 20
241.6455420483934
 10
618.3635538569284
 20
244.7312926370513
 10
616.0946196005579
 20
249.3599185200515
 72
     4
 94
        3
 73
     0
 74
     0
 95
        8
 96
        4
 40
0.037037037037037
 40
0.037037037037037
 40
0.037037037037037
 40
0.037037037037037
 40
0.0740740740740741
 40
0.0740740740740741
 40
0.0740740740740741
 40
0.0740740740740741
 10
616.0946196005579
 20
249.3599185200515
 10
613.8559378009452
 20
253.9885444030392
 10
612.615587074125
 20
260.5593780095007
 10
612.403819876861
 20
269.0058639345424
 72
     4
 94
        3
 73
     0
 74
     0
 95
        8
 96
        4
 40
0.0
 40
0.0
 40
0.0
 40
0.0
 40
0.037037037037037
 40
0.037037037037037
 40
0.037037037037037
 40
0.037037037037037
 10
612.403819876861
 20
269.0058639345424
 10
612.403819876861
 20
269.0058639345424
 10
708.4614205545173
 20
269.0058639345424
 10
708.4614205545173
 20
269.0058639345424
 72
     4
 94
        3
 73
     0
 74
     0
 95
        8
 96
        4
 40
0.9629629629629622
 40
0.9629629629629622
 40
0.9629629629629622
 40
0.9629629629629622
 40
1.0
 40
1.0
 40
1.0
 40
1.0
 10
708.4614205545173
 20
269.0058639345424
 10
708.4614205545173
 20
269.4838527512082
 10
708.4916730112678
 20
270.2099117132565
 10
708.5521779247698
 20
271.1840408206606
 72
     4
 94
        3
 73
     0
 74
     0
 95
        8
 96
        4
 40
0.9259259259259254
 40
0.9259259259259254
 40
0.9259259259259254
 40
0.9259259259259254
 40
0.9629629629629622
 40
0.9629629629629622
 40
0.9629629629629622
 40
0.9629629629629622
 10
708.5521779247698
 20
271.1840408206606
 10
708.6126828382645
 20
272.152119436703
 10
708.6429352950219
 20
272.8781783987508
 10
708.6429352950219
 20
273.3864196721595
 72
     4
 94
        3
 73
     0
 74
     0
 95
        8
 96
        4
 40
0.8888888888888883
 40
0.8888888888888883
 40
0.8888888888888883
 40
0.8888888888888883
 40
0.9259259259259254
 40
0.9259259259259254
 40
0.9259259259259254
 40
0.9259259259259254
 10
708.6429352950219
 20
273.3864196721595
 10
708.6429352950219
 20
283.1640136942819
 10
707.4630894817106
 20
290.8239357437751
 10
705.1033978550869
 20
296.3601353293297
 72
     4
 94
        3
 73
     0
 74
     0
 95
        8
 96
        4
 40
0.8518518518518513
 40
0.8518518518518513
 40
0.8518518518518513
 40
0.8518518518518513
 40
0.8888888888888883
 40
0.8888888888888883
 40
0.8888888888888883
 40
0.8888888888888883
 10
705.1033978550869
 20
296.3601353293297
 10
702.7679081938662
 20
301.902385406219
 10
699.3796330376853
 20
305.9259621541881
 10
694.9627743519478
 20
308.4671685213174
 97
        0
 92
       20
 93
       10
 72
     4
 94
        3
 73
     0
 74
     0
 95
        8
 96
        4
 40
0.2999999999999999
 40
0.2999999999999999
 40
0.2999999999999999
 40
0.2999999999999999
 40
0.4
 40
0.4
 40
0.4
 40
0.4
 10
660.3116103886854
 20
303.8687950950739
 10
666.9066459605276
 20
303.8687950950739
 10
672.7756225703355
 20
303.4452607005473
 10
677.8943382527058
 20
302.5981919114962
 72
     4
 94
        3
 73
     0
 74
     0
 95
        8
 96
        4
 40
0.2
 40
0.2
 40
0.2
 40
0.2
 40
0.3
 40
0.3
 40
0.3
 40
0.3
 10
677.8943382527058
 20
302.5981919114962
 10
683.0070034437277
 20
301.7208706657008
 10
686.9700752781823
 20
299.9662281741226
 10
689.7593517906728
 20
297.297961488627
 72
     4
 94
        3
 73
     0
 74
     0
 95
        8
 96
        4
 40
0.1
 40
0.1
 40
0.1
 40
0.1
 40
0.2
 40
0.2
 40
0.2
 40
0.2
 10
689.7593517906728
 20
297.297961488627
 10
691.9980335902994
 20
295.331551799772
 10
693.4804039711273
 20
292.9416077163913
 10
694.1459580196671
 20
290.188634152
 72
     4
 94
        3
 73
     0
 74
     0
 95
        8
 96
        4
 40
0.0
 40
0.0
 40
0.0
 40
0.0
 40
0.1
 40
0.1
 40
0.1
 40
0.1
 10
694.1459580196671
 20
290.188634152
 10
694.8417645249511
 20
287.4054081308506
 10
695.2652989194695
 20
283.980830026577
 10
695.3863087464807
 20
279.8967483651062
 72
     4
 94
        3
 73
     0
 74
     0
 95
        8
 96
        4
 40
0.9
 40
0.9
 40
0.9
 40
0.9
 40
1.0
 40
1.0
 40
1.0
 40
1.0
 10
695.3863087464807
 20
279.8967483651062
 10
695.3863087464807
 20
279.8967483651062
 10
612.7668493578861
 20
279.8967483651062
 10
612.7668493578861
 20
279.8967483651062
 72
     4
 94
        3
 73
     0
 74
     0
 95
        8
 96
        4
 40
0.7999999999999999
 40
0.7999999999999999
 40
0.7999999999999999
 40
0.7999999999999999
 40
0.8999999999999998
 40
0.8999999999999998
 40
0.8999999999999998
 40
0.8999999999999998
 10
612.7668493578861
 20
279.8967483651062
 10
613.0088690118927
 20
284.0413349400917
 10
613.4929083199202
 20
287.5264179578536
 10
614.2189672819552
 20
290.3398964357475
 72
     4
 94
        3
 73
     0
 74
     0
 95
        8
 96
        4
 40
0.7000000000000001
 40
0.7000000000000001
 40
0.7000000000000001
 40
0.7000000000000001
 40
0.8
 40
0.8
 40
0.8
 40
0.8
 10
614.2189672819552
 20
290.3398964357475
 10
614.9450262439898
 20
293.1533749136537
 10
616.457649081575
 20
295.5433189970353
 10
618.7265833379457
 20
297.4794762291465
 72
     4
 94
        3
 73
     0
 74
     0
 95
        8
 96
        4
 40
0.5999999999999999
 40
0.5999999999999999
 40
0.5999999999999999
 40
0.5999999999999999
 40
0.6999999999999999
 40
0.6999999999999999
 40
0.6999999999999999
 40
0.6999999999999999
 10
618.7265833379457
 20
297.4794762291465
 10
621.8728388401123
 20
300.1477429146135
 10
626.144485733438
 20
301.8721329494607
 10
631.5596754919685
 20
302.6526463336491
 72
     4
 94
        3
 73
     0
 74
     0
 95
        8
 96
        4
 40
0.5000000000000001
 40
0.5000000000000001
 40
0.5000000000000001
 40
0.5000000000000001
 40
0.6000000000000001
 40
0.6000000000000001
 40
0.6000000000000001
 40
0.6000000000000001
 10
631.5596754919685
 20
302.6526463336491
 10
636.9446127937548
 20
303.475513157306
 10
643.2068713413306
 20
303.8687950950739
 10
650.3525016260581
 20
303.8687950950739
 72
     4
 94
        3
 73
     0
 74
     0
 95
        8
 96
        4
 40
0.4
 40
0.4
 40
0.4
 40
0.4
 40
0.5
 40
0.5
 40
0.5
 40
0.5
 10
650.3525016260581
 20
303.8687950950739
 10
650.3525016260581
 20
303.8687950950739
 10
660.3116103886854
 20
303.8687950950739
 10
660.3116103886854
 20
303.8687950950739
 97
        0
 75
     0
 76
     1
 47
0.3002294316317904
 98
        2
 10
669.5492276899182
 20
308.7512200650957
 10
669.5492276899182
 20
308.7512200650957
1001
ACAD
1010
-252.3082624501371
1020
-714.7606778567194
1030
0.0
  0
HATCH
  5
C0F
330
AEF
100
AcDbEntity
  8
0
100
AcDbHatch
 10
0.0
 20
0.0
 30
0.0
210
0.0
220
0.0
230
1.0
  2
SOLID
 70
     1
 71
     0
 91
        1
 92
        5
 93
       21
 72
     4
 94
        3
 73
     0
 74
     0
 95
        8
 96
        4
 40
0.2380952380952381
 40
0.2380952380952381
 40
0.2380952380952381
 40
0.2380952380952381
 40
0.2857142857142857
 40
0.2857142857142857
 40
0.2857142857142857
 40
0.2857142857142857
 10
840.5337087960967
 20
309.8587815318854
 10
836.9639188994112
 20
312.0974633315046
 10
832.6378175839392
 20
313.5495812555747
 10
827.6098592718218
 20
314.1848828473631
 72
     4
 94
        3
 73
     0
 74
     0
 95
        8
 96
        4
 40
0.1904761904761905
 40
0.1904761904761905
 40
0.1904761904761905
 40
0.1904761904761905
 40
0.2380952380952381
 40
0.2380952380952381
 40
0.2380952380952381
 40
0.2380952380952381
 10
827.6098592718218
 20
314.1848828473631
 10
822.5879514510591
 20
314.8262349304879
 10
815.9626634224661
 20
315.12875949801
 10
807.6674397811714
 20
315.12875949801
 72
     4
 94
        3
 73
     0
 74
     0
 95
        8
 96
        4
 40
0.1428571428571429
 40
0.1428571428571429
 40
0.1428571428571429
 40
0.1428571428571429
 40
0.1904761904761905
 40
0.1904761904761905
 40
0.1904761904761905
 40
0.1904761904761905
 10
807.6674397811714
 20
315.12875949801
 10
798.9547322367126
 20
315.12875949801
 10
791.6578396682312
 20
314.0638730203465
 10
785.8191155151668
 20
311.9462010477438
 72
     4
 94
        3
 73
     0
 74
     0
 95
        8
 96
        4
 40
0.0952380952380952
 40
0.0952380952380952
 40
0.0952380952380952
 40
0.0952380952380952
 40
0.1428571428571429
 40
0.1428571428571429
 40
0.1428571428571429
 40
0.1428571428571429
 10
785.8191155151668
 20
311.9462010477438
 10
779.9743408707691
 20
309.8285290751403
 10
775.9205116660555
 20
305.4419228461607
 10
773.7120823231862
 20
298.7803318694548
 72
     4
 94
        3
 73
     0
 74
     0
 95
        8
 96
        4
 40
0.0476190476190476
 40
0.0476190476190476
 40
0.0476190476190476
 40
0.0476190476190476
 40
0.0952380952380952
 40
0.0952380952380952
 40
0.0952380952380952
 40
0.0952380952380952
 10
773.7120823231862
 20
298.7803318694548
 10
773.7120823231862
 20
298.7803318694548
 10
773.7120823231861
 20
313.9999999999997
 10
773.7120823231861
 20
313.9999999999997
 72
     4
 94
        3
 73
     0
 74
     0
 95
        8
 96
        4
 40
0.0
 40
0.0
 40
0.0
 40
0.0
 40
0.0476190476190476
 40
0.0476190476190476
 40
0.0476190476190476
 40
0.0476190476190476
 10
773.7120823231861
 20
313.9999999999997
 10
773.7120823231861
 20
313.9999999999997
 10
760.9999999961604
 20
313.9999999999997
 10
760.9999999961604
 20
313.9999999999997
 72
     4
 94
        3
 73
     0
 74
     0
 95
        8
 96
        4
 40
0.9523809523809527
 40
0.9523809523809527
 40
0.9523809523809527
 40
0.9523809523809527
 40
1.0
 40
1.0
 40
1.0
 40
1.0
 10
760.9999999961604
 20
313.9999999999997
 10
760.9999999961604
 20
313.9999999999997
 10
760.9999999961601
 20
228.0000000000027
 10
760.9999999961601
 20
228.0000000000027
 72
     4
 94
        3
 73
     0
 74
     0
 95
        8
 96
        4
 40
0.9047619047619052
 40
0.9047619047619052
 40
0.9047619047619052
 40
0.9047619047619052
 40
0.9523809523809529
 40
0.9523809523809529
 40
0.9523809523809529
 40
0.9523809523809529
 10
760.9999999961601
 20
228.0000000000027
 10
760.9999999961601
 20
228.0000000000027
 10
773.7120823231861
 20
228.0000000000027
 10
773.7120823231861
 20
228.0000000000027
 72
     4
 94
        3
 73
     0
 74
     0
 95
        8
 96
        4
 40
0.8809523809523811
 40
0.8809523809523811
 40
0.8809523809523811
 40
0.8809523809523811
 40
0.9047619047619051
 40
0.9047619047619051
 40
0.9047619047619051
 40
0.9047619047619051
 10
773.7120823231861
 20
228.0000000000027
 10
773.7120823231861
 20
228.0000000000027
 10
773.7120823231861
 20
240.0590502745454
 10
773.7120823231861
 20
252.118100549088
 72
     4
 94
        3
 73
     0
 74
     0
 95
       12
 96
        8
 40
0.8095238095238098
 40
0.8095238095238098
 40
0.8095238095238098
 40
0.8095238095238098
 40
0.8333333333333337
 40
0.8333333333333337
 40
0.8333333333333337
 40
0.8333333333333337
 40
0.8809523809523813
 40
0.8809523809523813
 40
0.8809523809523813
 40
0.8809523809523813
 10
773.7120823231861
 20
252.118100549088
 10
773.7120823231861
 20
264.1771508236308
 10
773.7120823231862
 20
276.2362010981739
 10
773.7120823231862
 20
276.2362010981739
 10
773.7120823231862
 20
276.2362010981739
 10
773.7120823231862
 20
284.0413349400917
 10
774.9826855067508
 20
289.9466144979925
 10
777.5541443306368
 20
293.9399387892052
 72
     4
 94
        3
 73
     0
 74
     0
 95
        8
 96
        4
 40
0.7619047619047621
 40
0.7619047619047621
 40
0.7619047619047621
 40
0.7619047619047621
 40
0.8095238095238098
 40
0.8095238095238098
 40
0.8095238095238098
 40
0.8095238095238098
 10
777.5541443306368
 20
293.9399387892052
 10
780.0953506977727
 20
297.9332630804017
 10
783.7861504214615
 20
300.5652268178043
 10
788.6325939930677
 20
301.902385406219
 72
     4
 94
        3
 73
     0
 74
     0
 95
        8
 96
        4
 40
0.7142857142857145
 40
0.7142857142857145
 40
0.7142857142857145
 40
0.7142857142857145
 40
0.7619047619047621
 40
0.7619047619047621
 40
0.7619047619047621
 40
0.7619047619047621
 10
788.6325939930677
 20
301.902385406219
 10
793.442734616574
 20
303.2032410465413
 10
799.9167603614194
 20
303.8687950950739
 10
808.0607217189397
 20
303.8687950950739
 72
     4
 94
        3
 73
     0
 74
     0
 95
        8
 96
        4
 40
0.6666666666666668
 40
0.6666666666666668
 40
0.6666666666666668
 40
0.6666666666666668
 40
0.7142857142857145
 40
0.7142857142857145
 40
0.7142857142857145
 40
0.7142857142857145
 10
808.0607217189397
 20
303.8687950950739
 10
808.0607217189397
 20
303.8687950950739
 10
812.3868230344246
 20
303.8687950950739
 10
812.3868230344246
 20
303.8687950950739
 72
     4
 94
        3
 73
     0
 74
     0
 95
        8
 96
        4
 40
0.6190476190476191
 40
0.6190476190476191
 40
0.6190476190476191
 40
0.6190476190476191
 40
0.6666666666666668
 40
0.6666666666666668
 40
0.6666666666666668
 40
0.6666666666666668
 10
812.3868230344246
 20
303.8687950950739
 10
819.7744729731589
 20
303.8687950950739
 10
825.3409250154508
 20
303.0217263060218
 10
829.0922296526487
 20
301.3275887279457
 72
     4
 94
        3
 73
     0
 74
     0
 95
        8
 96
        4
 40
0.5714285714285714
 40
0.5714285714285714
 40
0.5714285714285714
 40
0.5714285714285714
 40
0.6190476190476191
 40
0.6190476190476191
 40
0.6190476190476191
 40
0.6190476190476191
 10
829.0922296526487
 20
301.3275887279457
 10
832.8193323244448
 20
299.6274006585069
 10
835.3605386915738
 20
296.8441746373439
 10
836.6916467886465
 20
293.0021126298933
 72
     4
 94
        3
 73
     0
 74
     0
 95
        8
 96
        4
 40
0.5238095238095238
 40
0.5238095238095238
 40
0.5238095238095238
 40
0.5238095238095238
 40
0.5714285714285714
 40
0.5714285714285714
 40
0.5714285714285714
 40
0.5714285714285714
 10
836.6916467886465
 20
293.0021126298933
 10
838.0530073424697
 20
289.1600506224423
 10
838.7185613910029
 20
283.5935985801574
 10
838.7185613910029
 20
276.2664535549176
 72
     4
 94
        3
 73
     0
 74
     0
 95
        8
 96
        4
 40
0.4761904761904763
 40
0.4761904761904763
 40
0.4761904761904763
 40
0.4761904761904763
 40
0.5238095238095238
 40
0.5238095238095238
 40
0.5238095238095238
 40
0.5238095238095238
 10
838.7185613910029
 20
276.2664535549176
 10
838.7185613910029
 20
276.2664535549176
 10
851.2491289775171
 20
276.2664535549176
 10
851.2491289775171
 20
276.2664535549176
 72
     4
 94
        3
 73
     0
 74
     0
 95
        8
 96
        4
 40
0.4285714285714287
 40
0.4285714285714287
 40
0.4285714285714287
 40
0.4285714285714287
 40
0.4761904761904763
 40
0.4761904761904763
 40
0.4761904761904763
 40
0.4761904761904763
 10
851.2491289775171
 20
276.2664535549176
 10
851.2491289775171
 20
276.6597354926868
 10
851.2793814342678
 20
277.325289541233
 10
851.3398863477698
 20
278.2026107870156
 72
     4
 94
        3
 73
     0
 74
     0
 95
        8
 96
        4
 40
0.3809523809523809
 40
0.3809523809523809
 40
0.3809523809523809
 40
0.3809523809523809
 40
0.4285714285714287
 40
0.4285714285714287
 40
0.4285714285714287
 40
0.4285714285714287
 10
851.3398863477698
 20
278.2026107870156
 10
851.4003912612716
 20
279.079932032811
 10
851.430643718022
 20
279.7757385381024
 10
851.430643718022
 20
280.2295253893861
 72
     4
 94
        3
 73
     0
 74
     0
 95
        8
 96
        4
 40
0.3333333333333333
 40
0.3333333333333333
 40
0.3333333333333333
 40
0.3333333333333333
 40
0.3809523809523809
 40
0.3809523809523809
 40
0.3809523809523809
 40
0.3809523809523809
 10
851.430643718022
 20
280.2295253893861
 10
851.430643718022
 20
288.3734867469058
 10
850.5230700154754
 20
294.7870075782424
 10
848.6776701536303
 20
299.4458859179882
 72
     4
 94
        3
 73
     0
 74
     0
 95
        8
 96
        4
 40
0.2857142857142858
 40
0.2857142857142858
 40
0.2857142857142858
 40
0.2857142857142858
 40
0.3333333333333334
 40
0.3333333333333334
 40
0.3333333333333334
 40
0.3333333333333334
 10
848.6776701536303
 20
299.4458859179882
 10
846.8625227485366
 20
304.1410672058387
 10
844.1337511495472
 20
307.6200997322656
 10
840.5337087960967
 20
309.8587815318854
 97
        0
 75
     0
 76
     1
 47
0.3002294316317904
 98
        1
 10
828.347940704732
 20
310.5563280280865
1001
ACAD
1010
-91.00000000381353
1020
-714.0
1030
0.0
  0
HATCH
  5
C10
330
AEF
100
AcDbEntity
  8
0
100
AcDbHatch
 10
0.0
 20
0.0
 30
0.0
210
0.0
220
0.0
230
1.0
  2
SOLID
 70
     1
 71
     0
 91
        1
 92
        5
 93
       52
 72
     4
 94
        3
 73
     0
 74
     0
 95
        8
 96
        4
 40
0.9622641509433961
 40
0.9622641509433961
 40
0.9622641509433961
 40
0.9622641509433961
 40
0.981132075471698
 40
0.981132075471698
 40
0.981132075471698
 40
0.981132075471698
 10
1069.294573213443
 20
299.4216839525931
 10
1062.524073392437
 20
306.9182427356258
 10
1051.687643384021
 20
311.4137578089114
 10
1036.694525817926
 20
312.9142796637994
 72
     4
 94
        3
 73
     0
 74
     0
 95
        8
 96
        4
 40
0.9433962264150943
 40
0.9433962264150943
 40
0.9433962264150943
 40
0.9433962264150943
 40
0.9622641509433961
 40
0.9622641509433961
 40
0.9622641509433961
 40
0.9622641509433961
 10
1036.694525817926
 20
312.9142796637994
 10
1022.518224584126
 20
314.457154958128
 10
1005.637353716746
 20
315.2255673596183
 10
986.0640141984614
 20
315.2255673596183
 72
     4
 94
        3
 73
     0
 74
     0
 95
        8
 96
        4
 40
0.9245283018867922
 40
0.9245283018867922
 40
0.9245283018867922
 40
0.9245283018867922
 40
0.9433962264150942
 40
0.9433962264150942
 40
0.9433962264150942
 40
0.9433962264150942
 10
986.0640141984614
 20
315.2255673596183
 10
951.6669708719042
 20
315.2255673596183
 10
927.9308933046008
 20
312.8295727848882
 10
914.910235918724
 20
308.0315331440933
 72
     4
 94
        3
 73
     0
 74
     0
 95
        8
 96
        4
 40
0.9056603773584905
 40
0.9056603773584905
 40
0.9056603773584905
 40
0.9056603773584905
 40
0.9245283018867924
 40
0.9245283018867924
 40
0.9245283018867924
 40
0.9245283018867924
 10
914.910235918724
 20
308.0315331440933
 10
905.1870963187615
 20
304.3467839117525
 10
898.416596497756
 20
298.520160741388
 10
894.5200800681524
 20
290.6000675638143
 72
     4
 94
        3
 73
     0
 74
     0
 95
        8
 96
        4
 40
0.8867924528301887
 40
0.8867924528301887
 40
0.8867924528301887
 40
0.8867924528301887
 40
0.9056603773584905
 40
0.9056603773584905
 40
0.9056603773584905
 40
0.9056603773584905
 10
894.5200800681524
 20
290.6000675638143
 10
890.6235636385419
 20
282.6739238949061
 10
888.6934568977933
 20
272.9931377343917
 10
888.6934568977933
 20
261.5093051514815
 72
     4
 94
        3
 73
     0
 74
     0
 95
        8
 96
        4
 40
0.8679245283018866
 40
0.8679245283018866
 40
0.8679245283018866
 40
0.8679245283018866
 40
0.8867924528301886
 40
0.8867924528301886
 40
0.8867924528301886
 40
0.8867924528301886
 10
888.6934568977933
 20
261.5093051514815
 10
888.6934568977933
 20
253.9764434203548
 10
889.8914541851519
 20
247.5931750457619
 10
892.2450953204331
 20
242.492610837431
 72
     4
 94
        3
 73
     0
 74
     0
 95
        8
 96
        4
 40
0.8490566037735847
 40
0.8490566037735847
 40
0.8490566037735847
 40
0.8490566037735847
 40
0.8679245283018866
 40
0.8679245283018866
 40
0.8679245283018866
 40
0.8679245283018866
 10
892.2450953204331
 20
242.492610837431
 10
894.6471403865048
 20
237.3496931896731
 10
898.0293650513363
 20
233.3261164417165
 10
902.4462237370675
 20
230.325072731955
 72
     4
 94
        3
 73
     0
 74
     0
 95
        8
 96
        4
 40
0.830188679245283
 40
0.830188679245283
 40
0.830188679245283
 40
0.830188679245283
 40
0.8490566037735847
 40
0.8490566037735847
 40
0.8490566037735847
 40
0.8490566037735847
 10
902.4462237370675
 20
230.325072731955
 10
906.8570319314497
 20
227.3724329530128
 10
912.0423030186708
 20
225.1882055755319
 10
917.911279628478
 20
223.772390599555
 72
     4
 94
        3
 73
     0
 74
     0
 95
        8
 96
        4
 40
0.8113207547169809
 40
0.8113207547169809
 40
0.8113207547169809
 40
0.8113207547169809
 40
0.830188679245283
 40
0.830188679245283
 40
0.830188679245283
 40
0.830188679245283
 10
917.911279628478
 20
223.772390599555
 10
923.8165591863856
 20
222.404979554382
 10
930.8472301354511
 20
221.4187494642808
 10
939.0698478805399
 20
220.8621042600532
 72
     4
 94
        3
 73
     0
 74
     0
 95
        8
 96
        4
 40
0.7924528301886792
 40
0.7924528301886792
 40
0.7924528301886792
 40
0.7924528301886792
 40
0.811320754716981
 40
0.811320754716981
 40
0.811320754716981
 40
0.811320754716981
 10
939.0698478805399
 20
220.8621042600532
 10
945.7979942620971
 20
220.4325193741918
 10
961.1299393438065
 20
220.0029344883177
 10
985.0354306689039
 20
219.621753533247
 72
     4
 94
        3
 73
     0
 74
     0
 95
        8
 96
        4
 40
0.7735849056603774
 40
0.7735849056603774
 40
0.7735849056603774
 40
0.7735849056603774
 40
0.7924528301886792
 40
0.7924528301886792
 40
0.7924528301886792
 40
0.7924528301886792
 10
985.0354306689039
 20
219.621753533247
 10
985.0354306689039
 20
219.621753533247
 10
1024.357573954622
 20
219.1074617684606
 10
1024.357573954622
 20
219.1074617684606
 72
     4
 94
        3
 73
     0
 74
     0
 95
        8
 96
        4
 40
0.7547169811320754
 40
0.7547169811320754
 40
0.7547169811320754
 40
0.7547169811320754
 40
0.7735849056603774
 40
0.7735849056603774
 40
0.7735849056603774
 40
0.7735849056603774
 10
1024.357573954622
 20
219.1074617684606
 10
1033.868946357321
 20
218.8896440798497
 10
1041.153737943105
 20
218.2482919967123
 10
1046.16354478117
 20
217.0926481488026
 72
     4
 94
        3
 73
     0
 74
     0
 95
        8
 96
        4
 40
0.7358490566037736
 40
0.7358490566037736
 40
0.7358490566037736
 40
0.7358490566037736
 40
0.7547169811320754
 40
0.7547169811320754
 40
0.7547169811320754
 40
0.7547169811320754
 10
1046.16354478117
 20
217.0926481488026
 10
1051.13099817978
 20
215.9370043009061
 10
1055.075918540188
 20
213.3231920375648
 10
1057.901498000792
 20
209.2935647982459
 72
     4
 94
        3
 73
     0
 74
     0
 95
        8
 96
        4
 40
0.7169811320754717
 40
0.7169811320754717
 40
0.7169811320754717
 40
0.7169811320754717
 40
0.7358490566037736
 40
0.7358490566037736
 40
0.7358490566037736
 40
0.7358490566037736
 10
1057.901498000792
 20
209.2935647982459
 10
1060.769430900838
 20
205.2699880502899
 10
1062.185245876815
 20
199.0198304854117
 10
1062.185245876815
 20
190.5370416122495
 72
     4
 94
        3
 73
     0
 74
     0
 95
        8
 96
        4
 40
0.6981132075471698
 40
0.6981132075471698
 40
0.6981132075471698
 40
0.6981132075471698
 40
0.7169811320754717
 40
0.7169811320754717
 40
0.7169811320754717
 40
0.7169811320754717
 10
1062.185245876815
 20
190.5370416122495
 10
1062.185245876815
 20
180.8139020122929
 10
1060.001018499355
 20
173.7892815545907
 10
1055.590210304966
 20
169.5055336785678
 72
     4
 94
        3
 73
     0
 74
     0
 95
        8
 96
        4
 40
0.6792452830188679
 40
0.6792452830188679
 40
0.6792452830188679
 40
0.6792452830188679
 40
0.6981132075471698
 40
0.6981132075471698
 40
0.6981132075471698
 40
0.6981132075471698
 10
1055.590210304966
 20
169.5055336785678
 10
1051.21570505869
 20
165.2217858025314
 10
1043.97931740371
 20
162.4325092900332
 10
1033.868946357321
 20
161.2345120026676
 72
     4
 94
        3
 73
     0
 74
     0
 95
        8
 96
        4
 40
0.6603773584905661
 40
0.6603773584905661
 40
0.6603773584905661
 40
0.6603773584905661
 40
0.6792452830188679
 40
0.6792452830188679
 40
0.6792452830188679
 40
0.6792452830188679
 10
1033.868946357321
 20
161.2345120026676
 10
1019.390120556012
 20
159.3528091927229
 10
1003.199005702567
 20
158.4089325420628
 10
985.2895513056225
 20
158.4089325420628
 72
     4
 94
        3
 73
     0
 74
     0
 95
        8
 96
        4
 40
0.6415094339622641
 40
0.6415094339622641
 40
0.6415094339622641
 40
0.6415094339622641
 40
0.6603773584905661
 40
0.6603773584905661
 40
0.6603773584905661
 40
0.6603773584905661
 10
985.2895513056225
 20
158.4089325420628
 10
973.0373063212292
 20
158.4089325420628
 10
961.6018776691229
 20
158.7114571095845
 10
950.9348614185142
 20
159.3044052619189
 72
     4
 94
        3
 73
     0
 74
     0
 95
        8
 96
        4
 40
0.6226415094339623
 40
0.6226415094339623
 40
0.6226415094339623
 40
0.6226415094339623
 40
0.6415094339622641
 40
0.6415094339622641
 40
0.6415094339622641
 40
0.6415094339622641
 10
950.9348614185142
 20
159.3044052619189
 10
940.3101986073529
 20
159.9094543969505
 10
931.6156425369481
 20
161.1498051237705
 10
924.8935466467466
 20
163.0315079337147
 72
     4
 94
        3
 73
     0
 74
     0
 95
        8
 96
        4
 40
0.6037735849056604
 40
0.6037735849056604
 40
0.6037735849056604
 40
0.6037735849056604
 40
0.6226415094339623
 40
0.6226415094339623
 40
0.6226415094339623
 40
0.6226415094339623
 10
924.8935466467466
 20
163.0315079337147
 10
920.3072742032086
 20
164.4049694702361
 10
916.9250495383691
 20
166.4197830898955
 10
914.7408221609092
 20
169.1183022321336
 72
     4
 94
        3
 73
     0
 74
     0
 95
        8
 96
        4
 40
0.5849056603773585
 40
0.5849056603773585
 40
0.5849056603773585
 40
0.5849056603773585
 40
0.6037735849056604
 40
0.6037735849056604
 40
0.6037735849056604
 40
0.6037735849056604
 10
914.7408221609092
 20
169.1183022321336
 10
912.5505442921003
 20
171.8168213743735
 10
911.1831332469209
 20
174.8541680322402
 10
910.6688414821421
 20
178.2000897489519
 72
     4
 94
        3
 73
     0
 74
     0
 95
        8
 96
        4
 40
0.5660377358490566
 40
0.5660377358490566
 40
0.5660377358490566
 40
0.5660377358490566
 40
0.5849056603773585
 40
0.5849056603773585
 40
0.5849056603773585
 40
0.5849056603773585
 10
910.6688414821421
 20
178.2000897489519
 10
910.1121962779158
 20
181.539960974343
 10
909.8096717104001
 20
186.1262334178883
 10
909.7249648314956
 20
191.8620992179802
 72
     4
 94
        3
 73
     0
 74
     0
 95
        8
 96
        4
 40
0.5471698113207548
 40
0.5471698113207548
 40
0.5471698113207548
 40
0.5471698113207548
 40
0.5660377358490566
 40
0.5660377358490566
 40
0.5660377358490566
 40
0.5660377358490566
 10
909.7249648314956
 20
191.8620992179802
 10
909.7249648314956
 20
191.8620992179802
 10
909.7249648314956
 20
195.4621415714234
 10
909.7249648314956
 20
195.4621415714234
 72
     4
 94
        3
 73
     0
 74
     0
 95
        8
 96
        4
 40
0.5283018867924528
 40
0.5283018867924528
 40
0.5283018867924528
 40
0.5283018867924528
 40
0.5471698113207548
 40
0.5471698113207548
 40
0.5471698113207548
 40
0.5471698113207548
 10
909.7249648314956
 20
195.4621415714234
 10
909.7249648314956
 20
195.4621415714234
 10
888.9475775345047
 20
195.4621415714234
 10
888.9475775345047
 20
195.4621415714234
 72
     4
 94
        3
 73
     0
 74
     0
 95
        8
 96
        4
 40
0.509433962264151
 40
0.509433962264151
 40
0.509433962264151
 40
0.509433962264151
 40
0.5283018867924528
 40
0.5283018867924528
 40
0.5283018867924528
 40
0.5283018867924528
 10
888.9475775345047
 20
195.4621415714234
 10
888.9475775345047
 20
186.0778294870835
 10
889.5526266695362
 20
178.4118569462147
 10
890.7506239569013
 20
172.45817345751
 72
     4
 94
        3
 73
     0
 74
     0
 95
        8
 96
        4
 40
0.4905660377358491
 40
0.4905660377358491
 40
0.4905660377358491
 40
0.4905660377358491
 40
0.5094339622641511
 40
0.5094339622641511
 40
0.5094339622641511
 40
0.5094339622641511
 10
890.7506239569013
 20
172.45817345751
 10
891.9909746837143
 20
166.5044899687926
 10
894.1328486217329
 20
161.5370365701893
 10
897.2185992103913
 20
157.5981667011176
 72
     4
 94
        3
 73
     0
 74
     0
 95
        8
 96
        4
 40
0.4716981132075471
 40
0.4716981132075471
 40
0.4716981132075471
 40
0.4716981132075471
 40
0.4905660377358491
 40
0.4905660377358491
 40
0.4905660377358491
 40
0.4905660377358491
 10
897.2185992103913
 20
157.5981667011176
 10
900.3043497990486
 20
153.6108929012674
 10
904.6304511145272
 20
150.5251423126106
 10
910.1969031568263
 20
148.2138546167913
 72
     4
 94
        3
 73
     0
 74
     0
 95
        8
 96
        4
 40
0.4528301886792451
 40
0.4528301886792451
 40
0.4528301886792451
 40
0.4528301886792451
 40
0.4716981132075471
 40
0.4716981132075471
 40
0.4716981132075471
 40
0.4716981132075471
 10
910.1969031568263
 20
148.2138546167913
 10
915.7270522510184
 20
145.9449203604277
 10
923.0481467848951
 20
144.1902778688206
 10
932.1299343017271
 20
142.9862300901076
 72
     4
 94
        3
 73
     0
 74
     0
 95
        8
 96
        4
 40
0.4339622641509435
 40
0.4339622641509435
 40
0.4339622641509435
 40
0.4339622641509435
 40
0.4528301886792452
 40
0.4528301886792452
 40
0.4528301886792452
 40
0.4528301886792452
 10
932.1299343017271
 20
142.9862300901076
 10
945.1505916876033
 20
141.2739410379707
 10
962.5457543197764
 20
140.4208217575832
 10
984.2609677760718
 20
140.4208217575832
 72
     4
 94
        3
 73
     0
 74
     0
 95
       12
 96
        8
 40
0.3962264150943397
 40
0.3962264150943397
 40
0.3962264150943397
 40
0.3962264150943397
 40
0.4150943396226416
 40
0.4150943396226416
 40
0.4150943396226416
 40
0.4150943396226416
 40
0.4339622641509435
 40
0.4339622641509435
 40
0.4339622641509435
 40
0.4339622641509435
 10
984.2609677760718
 20
140.4208217575832
 10
984.2609677760718
 20
140.4208217575832
 10
997.9290277364354
 20
140.4208217575832
 10
997.9290277364354
 20
140.4208217575832
 10
997.9290277364354
 20
140.4208217575832
 10
1011.808854894069
 20
140.4208217575832
 10
1024.018746439007
 20
140.8927600829
 10
1034.467945001004
 20
141.8729396816533
 72
     4
 94
        3
 73
     0
 74
     0
 95
        8
 96
        4
 40
0.3773584905660377
 40
0.3773584905660377
 40
0.3773584905660377
 40
0.3773584905660377
 40
0.3962264150943396
 40
0.3962264150943396
 40
0.3962264150943396
 40
0.3962264150943396
 10
1034.467945001004
 20
141.8729396816533
 10
1044.923194054357
 20
142.8168163322997
 10
1053.702457003666
 20
144.9163368308702
 10
1060.854137779742
 20
148.1291477378796
 72
     4
 94
        3
 73
     0
 74
     0
 95
        8
 96
        4
 40
0.3584905660377358
 40
0.3584905660377358
 40
0.3584905660377358
 40
0.3584905660377358
 40
0.3773584905660377
 40
0.3773584905660377
 40
0.3773584905660377
 40
0.3773584905660377
 10
1060.854137779742
 20
148.1291477378796
 10
1069.597097780952
 20
151.9833107280286
 10
1075.635488148567
 20
157.3803490125053
 10
1078.890652495039
 20
164.277909151884
 72
     4
 94
        3
 73
     0
 74
     0
 95
        8
 96
        4
 40
0.3396226415094338
 40
0.3396226415094338
 40
0.3396226415094338
 40
0.3396226415094338
 40
0.3584905660377358
 40
0.3584905660377358
 40
0.3584905660377358
 40
0.3584905660377358
 10
1078.890652495039
 20
164.277909151884
 10
1082.145816841512
 20
171.1754692912487
 10
1083.773399014751
 20
179.9547322405573
 10
1083.773399014751
 20
190.5793950517189
 72
     4
 94
        3
 73
     0
 74
     0
 95
        8
 96
        4
 40
0.3207547169811321
 40
0.3207547169811321
 40
0.3207547169811321
 40
0.3207547169811321
 40
0.3396226415094339
 40
0.3396226415094339
 40
0.3396226415094339
 40
0.3396226415094339
 10
1083.773399014751
 20
190.5793950517189
 10
1083.773399014751
 20
201.288764741776
 10
1082.272877159864
 20
209.8139070543804
 10
1079.277883941465
 20
216.1487714981694
 72
     4
 94
        3
 73
     0
 74
     0
 95
        8
 96
        4
 40
0.3018867924528302
 40
0.3018867924528302
 40
0.3018867924528302
 40
0.3018867924528302
 40
0.3207547169811322
 40
0.3207547169811322
 40
0.3207547169811322
 40
0.3207547169811322
 10
1079.277883941465
 20
216.1487714981694
 10
1076.234486792249
 20
222.4896864332933
 10
1071.521154030351
 20
227.2030191951913
 10
1065.053178776861
 20
230.325072731955
 72
     4
 94
        3
 73
     0
 74
     0
 95
        8
 96
        4
 40
0.2830188679245283
 40
0.2830188679245283
 40
0.2830188679245283
 40
0.2830188679245283
 40
0.3018867924528302
 40
0.3018867924528302
 40
0.3018867924528302
 40
0.3018867924528302
 10
1065.053178776861
 20
230.325072731955
 10
1058.627556962826
 20
233.4955301995244
 10
1049.933000892415
 20
235.6374041375358
 10
1039.005813513746
 20
236.7990984768077
 72
     4
 94
        3
 73
     0
 74
     0
 95
        8
 96
        4
 40
0.2641509433962264
 40
0.2641509433962264
 40
0.2641509433962264
 40
0.2641509433962264
 40
0.2830188679245283
 40
0.2830188679245283
 40
0.2830188679245283
 40
0.2830188679245283
 10
1039.005813513746
 20
236.7990984768077
 10
1029.669905360202
 20
237.8700354458071
 10
1017.76253838278
 20
238.3782767192162
 10
1003.32606602092
 20
238.3782767192162
 72
     4
 94
        3
 73
     0
 74
     0
 95
        8
 96
        4
 40
0.2452830188679245
 40
0.2452830188679245
 40
0.2452830188679245
 40
0.2452830188679245
 40
0.2641509433962264
 40
0.2641509433962264
 40
0.2641509433962264
 40
0.2641509433962264
 10
1003.32606602092
 20
238.3782767192162
 10
998.8245004562852
 20
238.3782767192162
 10
992.1024045660765
 20
238.3419737711239
 10
983.1053239281562
 20
238.2512164008782
 72
     4
 94
        3
 73
     0
 74
     0
 95
        8
 96
        4
 40
0.2264150943396225
 40
0.2264150943396225
 40
0.2264150943396225
 40
0.2264150943396225
 40
0.2452830188679245
 40
0.2452830188679245
 40
0.2452830188679245
 40
0.2452830188679245
 10
983.1053239281562
 20
238.2512164008782
 10
974.1082432902278
 20
238.166509521967
 10
967.3861474000336
 20
238.1241560825121
 10
962.9692887143024
 20
238.1241560825121
 72
     4
 94
        3
 73
     0
 74
     0
 95
        8
 96
        4
 40
0.2075471698113207
 40
0.2075471698113207
 40
0.2075471698113207
 40
0.2075471698113207
 40
0.2264150943396226
 40
0.2264150943396226
 40
0.2264150943396226
 40
0.2264150943396226
 10
962.9692887143024
 20
238.1241560825121
 10
954.5349037719574
 20
238.1241560825121
 10
948.2786957157239
 20
238.2935698403191
 10
944.206715036957
 20
238.6384478472975
 72
     4
 94
        3
 73
     0
 74
     0
 95
        8
 96
        4
 40
0.1886792452830189
 40
0.1886792452830189
 40
0.1886792452830189
 40
0.1886792452830189
 40
0.2075471698113207
 40
0.2075471698113207
 40
0.2075471698113207
 40
0.2075471698113207
 10
944.206715036957
 20
238.6384478472975
 10
936.7585601847141
 20
238.9409724148055
 10
930.6717658863016
 20
239.794091695193
 10
925.9160796849556
 20
241.2522601106242
 72
     4
 94
        3
 73
     0
 74
     0
 95
        8
 96
        4
 40
0.169811320754717
 40
0.169811320754717
 40
0.169811320754717
 40
0.169811320754717
 40
0.1886792452830189
 40
0.1886792452830189
 40
0.1886792452830189
 40
0.1886792452830189
 10
925.9160796849556
 20
241.2522601106242
 10
921.1603934836018
 20
242.6620245952394
 10
917.3909373723509
 20
245.3181902980358
 10
914.6500647906568
 20
249.2207572189879
 72
     4
 94
        3
 73
     0
 74
     0
 95
        8
 96
        4
 40
0.1509433962264151
 40
0.1509433962264151
 40
0.1509433962264151
 40
0.1509433962264151
 40
0.169811320754717
 40
0.169811320754717
 40
0.169811320754717
 40
0.169811320754717
 10
914.6500647906568
 20
249.2207572189879
 10
911.8668387695072
 20
253.0749202091497
 10
910.4994277243415
 20
258.5566653725375
 10
910.4994277243415
 20
265.6236392697251
 72
     4
 94
        3
 73
     0
 74
     0
 95
        8
 96
        4
 40
0.1320754716981132
 40
0.1320754716981132
 40
0.1320754716981132
 40
0.1320754716981132
 40
0.1509433962264151
 40
0.1509433962264151
 40
0.1509433962264151
 40
0.1509433962264151
 10
910.4994277243415
 20
265.6236392697251
 10
910.4994277243415
 20
278.3478225794274
 10
914.2688838355862
 20
286.316319687805
 10
921.8077960580822
 20
289.529130594815
 72
     4
 94
        3
 73
     0
 74
     0
 95
        8
 96
        4
 40
0.1132075471698113
 40
0.1132075471698113
 40
0.1132075471698113
 40
0.1132075471698113
 40
0.1320754716981132
 40
0.1320754716981132
 40
0.1320754716981132
 40
0.1320754716981132
 10
921.8077960580822
 20
289.529130594815
 10
928.0156001835116
 20
292.3123566159647
 10
937.230498510044
 20
294.2787663048192
 10
949.3496326847296
 20
295.3497032738186
 72
     4
 94
        3
 73
     0
 74
     0
 95
        8
 96
        4
 40
0.0943396226415094
 40
0.0943396226415094
 40
0.0943396226415094
 40
0.0943396226415094
 40
0.1132075471698113
 40
0.1132075471698113
 40
0.1132075471698113
 40
0.1132075471698113
 10
949.3496326847296
 20
295.3497032738186
 10
961.4748173507704
 20
296.4206402428311
 10
973.2974774492888
 20
296.9772854470573
 10
984.8176129802926
 20
296.9772854470573
 72
     4
 94
        3
 73
     0
 74
     0
 95
        8
 96
        4
 40
0.0754716981132075
 40
0.0754716981132075
 40
0.0754716981132075
 40
0.0754716981132075
 40
0.0943396226415094
 40
0.0943396226415094
 40
0.0943396226415094
 40
0.0943396226415094
 10
984.8176129802926
 20
296.9772854470573
 10
984.8176129802926
 20
296.9772854470573
 10
991.975344247724
 20
296.9772854470573
 10
991.975344247724
 20
296.9772854470573
 72
     4
 94
        3
 73
     0
 74
     0
 95
        8
 96
        4
 40
0.0566037735849057
 40
0.0566037735849057
 40
0.0566037735849057
 40
0.0566037735849057
 40
0.0754716981132075
 40
0.0754716981132075
 40
0.0754716981132075
 40
0.0754716981132075
 10
991.975344247724
 20
296.9772854470573
 10
1004.481709868829
 20
296.9772854470573
 10
1015.663017884217
 20
296.6384579314434
 10
1025.513217802538
 20
295.9123989693939
 72
     4
 94
        3
 73
     0
 74
     0
 95
        8
 96
        4
 40
0.0377358490566038
 40
0.0377358490566038
 40
0.0377358490566038
 40
0.0377358490566038
 40
0.0566037735849057
 40
0.0566037735849057
 40
0.0566037735849057
 40
0.0566037735849057
 10
1025.513217802538
 20
295.9123989693939
 10
1035.369468212208
 20
295.2226429554666
 10
1042.86602699525
 20
293.5950607822264
 10
1048.008944643015
 20
291.0720058891584
 72
     4
 94
        3
 73
     0
 74
     0
 95
        8
 96
        4
 40
0.0188679245283019
 40
0.0188679245283019
 40
0.0188679245283019
 40
0.0188679245283019
 40
0.0377358490566038
 40
0.0377358490566038
 40
0.0377358490566038
 40
0.0377358490566038
 10
1048.008944643015
 20
291.0720058891584
 10
1055.027514609383
 20
287.859194982134
 10
1058.542850083916
 20
279.4611129878817
 10
1058.542850083916
 20
265.8777599064297
 72
     4
 94
        3
 73
     0
 74
     0
 95
        8
 96
        4
 40
0.0
 40
0.0
 40
0.0
 40
0.0
 40
0.0188679245283019
 40
0.0188679245283019
 40
0.0188679245283019
 40
0.0188679245283019
 10
1058.542850083916
 20
265.8777599064297
 10
1058.542850083916
 20
265.8777599064297
 10
1079.362590820369
 20
265.8777599064297
 10
1079.362590820369
 20
265.8777599064297
 72
     4
 94
        3
 73
     0
 74
     0
 95
        8
 96
        4
 40
0.9811320754716978
 40
0.9811320754716978
 40
0.9811320754716978
 40
0.9811320754716978
 40
0.9999999999999998
 40
0.9999999999999998
 40
0.9999999999999998
 40
0.9999999999999998
 10
1079.362590820369
 20
265.8777599064297
 10
1079.362590820369
 20
280.7438171541434
 10
1076.022719594993
 20
291.9251251695455
 10
1069.294573213443
 20
299.4216839525931
 97
        0
 75
     0
 76
     1
 47
0.6038232501168387
 98
        1
 10
1025.569588389441
 20
299.155430248251
1001
ACAD
1010
36.6934568978241
1020
-801.5791782424226
1030
0.0
  0
HATCH
  5
C11
330
AEF
100
AcDbEntity
  8
0
100
AcDbHatch
 10
0.0
 20
0.0
 30
0.0
210
0.0
220
0.0
230
1.0
  2
SOLID
 70
     1
 71
     0
 91
        1
 92
        5
 93
       44
 72
     4
 94
        3
 73
     0
 74
     0
 95
        8
 96
        4
 40
0.4772727272727271
 40
0.4772727272727271
 40
0.4772727272727271
 40
0.4772727272727271
 40
0.4999999999999998
 40
0.4999999999999998
 40
0.4999999999999998
 40
0.4999999999999998
 10
2351.305443929512
 20
294.750704630136
 10
2347.62069469717
 20
303.4936646313659
 10
2339.525137270441
 20
309.1024701130927
 10
2327.061125088784
 20
311.5831715667202
 72
     4
 94
        3
 73
     0
 74
     0
 95
        8
 96
        4
 40
0.4545454545454544
 40
0.4545454545454544
 40
0.4545454545454544
 40
0.4545454545454544
 40
0.4772727272727272
 40
0.4772727272727272
 40
0.4772727272727272
 40
0.4772727272727272
 10
2327.061125088784
 20
311.5831715667202
 10
2315.746706263695
 20
314.0275700722542
 10
2300.929052946764
 20
315.2255673596183
 10
2282.596064155301
 20
315.2255673596183
 72
     4
 94
        3
 73
     0
 74
     0
 95
        8
 96
        4
 40
0.4318181818181818
 40
0.4318181818181818
 40
0.4318181818181818
 40
0.4318181818181818
 40
0.4545454545454544
 40
0.4545454545454544
 40
0.4545454545454544
 40
0.4545454545454544
 10
2282.596064155301
 20
315.2255673596183
 10
2279.855191573607
 20
315.2255673596183
 10
2275.740857455392
 20
315.1832139201634
 10
2270.259112291996
 20
315.0985070412517
 72
     4
 94
        3
 73
     0
 74
     0
 95
        8
 96
        4
 40
0.409090909090909
 40
0.409090909090909
 40
0.409090909090909
 40
0.409090909090909
 40
0.4318181818181818
 40
0.4318181818181818
 40
0.4318181818181818
 40
0.4318181818181818
 10
2270.259112291996
 20
315.0985070412517
 10
2264.771316637267
 20
315.0138001623546
 10
2260.663033010394
 20
314.9714467229143
 10
2257.964513868154
 20
314.9714467229143
 72
     4
 94
        3
 73
     0
 74
     0
 95
        8
 96
        4
 40
0.3863636363636363
 40
0.3863636363636363
 40
0.3863636363636363
 40
0.3863636363636363
 40
0.409090909090909
 40
0.409090909090909
 40
0.409090909090909
 40
0.409090909090909
 10
2257.964513868154
 20
314.9714467229143
 10
2236.884602003641
 20
314.9714467229143
 10
2221.165425475526
 20
314.457154958128
 10
2210.885640671329
 20
313.4285714285708
 72
     4
 94
        3
 73
     0
 74
     0
 95
        8
 96
        4
 40
0.3636363636363636
 40
0.3636363636363636
 40
0.3636363636363636
 40
0.3636363636363636
 40
0.3863636363636363
 40
0.3863636363636363
 40
0.3863636363636363
 40
0.3863636363636363
 10
2210.885640671329
 20
313.4285714285708
 10
2202.959497002414
 20
312.871926224344
 10
2196.188997181408
 20
311.9704030131389
 10
2190.664898578571
 20
310.6453454074356
 72
     4
 94
        3
 73
     0
 74
     0
 95
        8
 96
        4
 40
0.3409090909090909
 40
0.3409090909090909
 40
0.3409090909090909
 40
0.3409090909090909
 40
0.3636363636363636
 40
0.3636363636363636
 40
0.3636363636363636
 40
0.3636363636363636
 10
2190.664898578571
 20
310.6453454074356
 10
2185.098446536274
 20
309.3142373103559
 10
2180.167296085764
 20
307.2631207426033
 10
2175.79884133083
 20
304.4738442300918
 72
     4
 94
        3
 73
     0
 74
     0
 95
        8
 96
        4
 40
0.3181818181818182
 40
0.3181818181818182
 40
0.3181818181818182
 40
0.3181818181818182
 40
0.3409090909090909
 40
0.3409090909090909
 40
0.3409090909090909
 40
0.3409090909090909
 10
2175.79884133083
 20
304.4738442300918
 10
2171.388033136449
 20
301.6482647695144
 10
2167.745637343563
 20
297.7941017793526
 10
2164.750644125149
 20
292.8690018202059
 72
     4
 94
        3
 73
     0
 74
     0
 95
        8
 96
        4
 40
0.2954545454545456
 40
0.2954545454545456
 40
0.2954545454545456
 40
0.2954545454545456
 40
0.3181818181818182
 40
0.3181818181818182
 40
0.3181818181818182
 40
0.3181818181818182
 10
2164.750644125149
 20
292.8690018202059
 10
2161.749600415396
 20
287.8954979302262
 10
2159.480666159026
 20
281.5606334864382
 10
2157.937790864696
 20
273.8462570147932
 72
     4
 94
        3
 73
     0
 74
     0
 95
        8
 96
        4
 40
0.2727272727272728
 40
0.2727272727272728
 40
0.2727272727272728
 40
0.2727272727272728
 40
0.2954545454545455
 40
0.2954545454545455
 40
0.2954545454545455
 40
0.2954545454545455
 10
2157.937790864696
 20
273.8462570147932
 10
2155.880623805589
 20
262.8827666880162
 10
2154.852040276038
 20
246.0926531908751
 10
2154.852040276038
 20
223.4759165233815
 72
     4
 94
        3
 73
     0
 74
     0
 95
        8
 96
        4
 40
0.2500000000000001
 40
0.2500000000000001
 40
0.2500000000000001
 40
0.2500000000000001
 40
0.2727272727272728
 40
0.2727272727272728
 40
0.2727272727272728
 40
0.2727272727272728
 10
2154.852040276038
 20
223.4759165233815
 10
2154.852040276038
 20
211.2660249784505
 10
2155.196918283002
 20
200.4295949700269
 10
2155.838270366134
 20
190.833515688423
 72
     4
 94
        3
 73
     0
 74
     0
 95
        8
 96
        4
 40
0.2272727272727273
 40
0.2272727272727273
 40
0.2272727272727273
 40
0.2272727272727273
 40
0.2500000000000001
 40
0.2500000000000001
 40
0.2500000000000001
 40
0.2500000000000001
 10
2155.838270366134
 20
190.833515688423
 10
2156.824500456243
 20
175.628630925079
 10
2160.932784083103
 20
164.0177380238169
 10
2168.259929108341
 20
156.0552914068015
 72
     4
 94
        3
 73
     0
 74
     0
 95
        8
 96
        4
 40
0.2045454545454546
 40
0.2045454545454546
 40
0.2045454545454546
 40
0.2045454545454546
 40
0.2272727272727272
 40
0.2272727272727272
 40
0.2272727272727272
 40
0.2272727272727272
 10
2168.259929108341
 20
156.0552914068015
 10
2175.544720694126
 20
148.0867942984247
 10
2186.677624778708
 20
143.3311080970851
 10
2201.586035465885
 20
141.788232802742
 72
     4
 94
        3
 73
     0
 74
     0
 95
        8
 96
        4
 40
0.1818181818181819
 40
0.1818181818181819
 40
0.1818181818181819
 40
0.1818181818181819
 40
0.2045454545454546
 40
0.2045454545454546
 40
0.2045454545454546
 40
0.2045454545454546
 10
2201.586035465885
 20
141.788232802742
 10
2213.239281806605
 20
140.5478820759225
 10
2225.921111676873
 20
139.9488834322395
 10
2239.667828024797
 20
139.9488834322395
 72
     4
 94
        3
 73
     0
 74
     0
 95
        8
 96
        4
 40
0.1590909090909091
 40
0.1590909090909091
 40
0.1590909090909091
 40
0.1590909090909091
 40
0.1818181818181819
 40
0.1818181818181819
 40
0.1818181818181819
 40
0.1818181818181819
 10
2239.667828024797
 20
139.9488834322395
 10
2241.809701962802
 20
139.9488834322395
 10
2244.980159430371
 20
139.9912368716949
 10
2249.17920042749
 20
140.0759437506057
 72
     4
 94
        3
 73
     0
 74
     0
 95
        8
 96
        4
 40
0.1363636363636364
 40
0.1363636363636364
 40
0.1363636363636364
 40
0.1363636363636364
 40
0.1590909090909091
 40
0.1590909090909091
 40
0.1590909090909091
 40
0.1590909090909091
 10
2249.17920042749
 20
140.0759437506057
 10
2253.33588798516
 20
140.1606506295028
 10
2256.548698892177
 20
140.2030040689723
 10
2258.690572830189
 20
140.2030040689723
 72
     4
 94
        3
 73
     0
 74
     0
 95
        8
 96
        4
 40
0.1136363636363637
 40
0.1136363636363637
 40
0.1136363636363637
 40
0.1136363636363637
 40
0.1363636363636364
 40
0.1363636363636364
 40
0.1363636363636364
 40
0.1363636363636364
 10
2258.690572830189
 20
140.2030040689723
 10
2258.690572830189
 20
140.2030040689723
 10
2302.901513126968
 20
141.0137699099176
 10
2302.901513126968
 20
141.0137699099176
 72
     4
 94
        3
 73
     0
 74
     0
 95
        8
 96
        4
 40
0.0909090909090909
 40
0.0909090909090909
 40
0.0909090909090909
 40
0.0909090909090909
 40
0.1136363636363637
 40
0.1136363636363637
 40
0.1136363636363637
 40
0.1136363636363637
 10
2302.901513126968
 20
141.0137699099176
 10
2315.795110194493
 20
141.2739410379707
 10
2326.032541559235
 20
142.4719383253367
 10
2333.613807221178
 20
144.6138122633467
 72
     4
 94
        3
 73
     0
 74
     0
 95
        8
 96
        4
 40
0.0681818181818182
 40
0.0681818181818182
 40
0.0681818181818182
 40
0.0681818181818182
 40
0.0909090909090909
 40
0.0909090909090909
 40
0.0909090909090909
 40
0.0909090909090909
 10
2333.613807221178
 20
144.6138122633467
 10
2341.152719443681
 20
146.7133327619036
 10
2346.803878364883
 20
149.9684971083693
 10
2350.579384967477
 20
154.3369518633175
 72
     4
 94
        3
 73
     0
 74
     0
 95
        8
 96
        4
 40
0.0454545454545455
 40
0.0454545454545455
 40
0.0454545454545455
 40
0.0454545454545455
 40
0.0681818181818182
 40
0.0681818181818182
 40
0.0681818181818182
 40
0.0681818181818182
 10
2350.579384967477
 20
154.3369518633175
 10
2354.342790587372
 20
158.7477600576786
 10
2356.829542532354
 20
164.3202625913262
 10
2358.112246698623
 20
171.1331158517934
 72
     4
 94
        3
 73
     0
 74
     0
 95
        8
 96
        4
 40
0.0227272727272727
 40
0.0227272727272727
 40
0.0227272727272727
 40
0.0227272727272727
 40
0.0454545454545455
 40
0.0454545454545455
 40
0.0454545454545455
 40
0.0454545454545455
 10
2358.112246698623
 20
171.1331158517934
 10
2359.358647916786
 20
177.9399186208978
 10
2359.999999999916
 20
187.1487664560828
 10
2359.999999999915
 20
197.0000000000033
 72
     4
 94
        3
 73
     0
 74
     0
 95
        8
 96
        4
 40
0.0
 40
0.0
 40
0.0
 40
0.0
 40
0.0227272727272727
 40
0.0227272727272727
 40
0.0227272727272727
 40
0.0227272727272727
 10
2359.999999999915
 20
197.0000000000033
 10
2359.999999999915
 20
197.0000000000033
 10
2338.411846861986
 20
197.0000000000033
 10
2338.411846861986
 20
197.0000000000033
 72
     4
 94
        3
 73
     0
 74
     0
 95
        8
 96
        4
 40
0.9886363636363633
 40
0.9886363636363633
 40
0.9886363636363633
 40
0.9886363636363633
 40
0.9999999999999998
 40
0.9999999999999998
 40
0.9999999999999998
 40
0.9999999999999998
 10
2338.411846861986
 20
197.0000000000033
 10
2338.411846861986
 20
197.0000000000033
 10
2338.411846861986
 20
195.7367015242223
 10
2338.411846861986
 20
194.4734030484404
 72
     4
 94
        3
 73
     0
 74
     0
 95
       12
 96
        8
 40
0.9545454545454539
 40
0.9545454545454539
 40
0.9545454545454539
 40
0.9545454545454539
 40
0.9659090909090906
 40
0.9659090909090906
 40
0.9659090909090906
 40
0.9659090909090906
 40
0.9886363636363634
 40
0.9886363636363634
 40
0.9886363636363634
 40
0.9886363636363634
 10
2338.411846861986
 20
194.4734030484404
 10
2338.411846861986
 20
193.2101045726589
 10
2338.411846861986
 20
191.9468060968774
 10
2338.411846861986
 20
191.9468060968774
 10
2338.411846861986
 20
191.9468060968774
 10
2338.411846861986
 20
184.4078938743879
 10
2337.552677090236
 20
178.4542103856705
 10
2335.840388038101
 20
174.0857556307507
 72
     4
 94
        3
 73
     0
 74
     0
 95
        8
 96
        4
 40
0.9318181818181813
 40
0.9318181818181813
 40
0.9318181818181813
 40
0.9318181818181813
 40
0.9545454545454541
 40
0.9545454545454541
 40
0.9545454545454541
 40
0.9545454545454541
 10
2335.840388038101
 20
174.0857556307507
 10
2334.128098985956
 20
169.759654315272
 10
2331.556640162071
 20
166.5468434082476
 10
2328.174415497247
 20
164.447322909691
 72
     4
 94
        3
 73
     0
 74
     0
 95
        8
 96
        4
 40
0.9090909090909086
 40
0.9090909090909086
 40
0.9090909090909086
 40
0.9090909090909086
 40
0.9318181818181813
 40
0.9318181818181813
 40
0.9318181818181813
 40
0.9318181818181813
 10
2328.174415497247
 20
164.447322909691
 10
2324.786140341065
 20
162.3901558505769
 10
2320.720210153654
 20
161.0227448054048
 10
2316.049230831211
 20
160.3813927222674
 72
     4
 94
        3
 73
     0
 74
     0
 95
        8
 96
        4
 40
0.8863636363636359
 40
0.8863636363636359
 40
0.8863636363636359
 40
0.8863636363636359
 40
0.9090909090909086
 40
0.9090909090909086
 40
0.9090909090909086
 40
0.9090909090909086
 10
2316.049230831211
 20
160.3813927222674
 10
2311.335898069313
 20
159.7339901477936
 10
2304.740862497465
 20
159.2681023138258
 10
2296.215720184866
 20
158.9655777462905
 72
     4
 94
        3
 73
     0
 74
     0
 95
        8
 96
        4
 40
0.8636363636363631
 40
0.8636363636363631
 40
0.8636363636363631
 40
0.8636363636363631
 40
0.8863636363636359
 40
0.8863636363636359
 40
0.8863636363636359
 40
0.8863636363636359
 10
2296.215720184866
 20
158.9655777462905
 10
2296.215720184866
 20
158.9655777462905
 10
2257.964513868154
 20
158.4512859815319
 10
2257.964513868154
 20
158.4512859815319
 72
     4
 94
        3
 73
     0
 74
     0
 95
        8
 96
        4
 40
0.8409090909090904
 40
0.8409090909090904
 40
0.8409090909090904
 40
0.8409090909090904
 40
0.8636363636363631
 40
0.8636363636363631
 40
0.8636363636363631
 40
0.8636363636363631
 10
2257.964513868154
 20
158.4512859815319
 10
2249.052140109138
 20
158.4512859815319
 10
2235.68660471629
 20
158.6206997393393
 10
2217.867907689591
 20
158.9655777462905
 72
     4
 94
        3
 73
     0
 74
     0
 95
        8
 96
        4
 40
0.8181818181818178
 40
0.8181818181818178
 40
0.8181818181818178
 40
0.8181818181818178
 40
0.8409090909090904
 40
0.8409090909090904
 40
0.8409090909090904
 40
0.8409090909090904
 10
2217.867907689591
 20
158.9655777462905
 10
2207.799890082672
 20
158.9655777462905
 10
2199.958453292653
 20
160.20592847311
 10
2194.222587492554
 20
162.6926804180857
 72
     4
 94
        3
 73
     0
 74
     0
 95
        8
 96
        4
 40
0.7954545454545451
 40
0.7954545454545451
 40
0.7954545454545451
 40
0.7954545454545451
 40
0.8181818181818178
 40
0.8181818181818178
 40
0.8181818181818178
 40
0.8181818181818178
 10
2194.222587492554
 20
162.6926804180857
 10
2188.523024640553
 20
165.1310284322716
 10
2184.408690522339
 20
168.7310707857149
 10
2181.927989068705
 20
173.4444035476123
 72
     4
 94
        3
 73
     0
 74
     0
 95
        8
 96
        4
 40
0.7727272727272724
 40
0.7727272727272724
 40
0.7727272727272724
 40
0.7727272727272724
 40
0.7954545454545451
 40
0.7954545454545451
 40
0.7954545454545451
 40
0.7954545454545451
 10
2181.927989068705
 20
173.4444035476123
 10
2179.441237123729
 20
178.2000897489519
 10
2177.898361829394
 20
183.6394814728975
 10
2177.341716625166
 20
189.804932158866
 72
     4
 94
        3
 73
     0
 74
     0
 95
        8
 96
        4
 40
0.7499999999999997
 40
0.7499999999999997
 40
0.7499999999999997
 40
0.7499999999999997
 40
0.7727272727272724
 40
0.7727272727272724
 40
0.7727272727272724
 40
0.7727272727272724
 10
2177.341716625166
 20
189.804932158866
 10
2176.742717981483
 20
195.9764333361952
 10
2176.440193413975
 20
204.7980497249604
 10
2176.440193413975
 20
216.3181852559773
 72
     4
 94
        3
 73
     0
 74
     0
 95
        8
 96
        4
 40
0.727272727272727
 40
0.727272727272727
 40
0.727272727272727
 40
0.727272727272727
 40
0.7499999999999996
 40
0.7499999999999996
 40
0.7499999999999996
 40
0.7499999999999996
 10
2176.440193413975
 20
216.3181852559773
 10
2176.440193413975
 20
235.6858080683261
 10
2176.869778299844
 20
250.1585833782998
 10
2177.771301511041
 20
259.7123092204486
 72
     4
 94
        3
 73
     0
 74
     0
 95
        8
 96
        4
 40
0.7045454545454542
 40
0.7045454545454542
 40
0.7045454545454542
 40
0.7045454545454542
 40
0.727272727272727
 40
0.727272727272727
 40
0.727272727272727
 40
0.727272727272727
 10
2177.771301511041
 20
259.7123092204486
 10
2178.624420791435
 20
267.5537460104587
 10
2179.653004320984
 20
273.5074294991774
 10
2180.808648168896
 20
277.5733596865889
 72
     4
 94
        3
 73
     0
 74
     0
 95
        8
 96
        4
 40
0.6818181818181816
 40
0.6818181818181816
 40
0.6818181818181816
 40
0.6818181818181816
 40
0.7045454545454543
 40
0.7045454545454543
 40
0.7045454545454543
 40
0.7045454545454543
 10
2180.808648168896
 20
277.5733596865889
 10
2181.970342508166
 20
281.6453403653626
 10
2183.724984999752
 20
284.9005047118274
 10
2186.169383505286
 20
287.2964992865446
 72
     4
 94
        3
 73
     0
 74
     0
 95
        8
 96
        4
 40
0.6590909090909089
 40
0.6590909090909089
 40
0.6590909090909089
 40
0.6590909090909089
 40
0.6818181818181816
 40
0.6818181818181816
 40
0.6818181818181816
 40
0.6818181818181816
 10
2186.169383505286
 20
287.2964992865446
 10
2188.60773151945
 20
289.6985443526224
 10
2191.947602744835
 20
291.4955402836694
 10
2196.188997181408
 20
292.6511841315933
 72
     4
 94
        3
 73
     0
 74
     0
 95
        8
 96
        4
 40
0.6363636363636362
 40
0.6363636363636362
 40
0.6363636363636362
 40
0.6363636363636362
 40
0.6590909090909089
 40
0.6590909090909089
 40
0.6590909090909089
 40
0.6590909090909089
 10
2196.188997181408
 20
292.6511841315933
 10
2200.472745057432
 20
293.8128784708387
 10
2206.559539355851
 20
294.750704630136
 10
2214.479632533417
 20
295.3920567132735
 72
     4
 94
        3
 73
     0
 74
     0
 95
        8
 96
        4
 40
0.6136363636363634
 40
0.6136363636363634
 40
0.6136363636363634
 40
0.6136363636363634
 40
0.6363636363636362
 40
0.6363636363636362
 40
0.6363636363636362
 40
0.6363636363636362
 10
2214.479632533417
 20
295.3920567132735
 10
2226.992048645879
 20
296.469044173636
 10
2245.754622323217
 20
296.9772854470573
 10
2270.767353565434
 20
296.9772854470573
 72
     4
 94
        3
 73
     0
 74
     0
 95
        8
 96
        4
 40
0.5909090909090908
 40
0.5909090909090908
 40
0.5909090909090908
 40
0.5909090909090908
 40
0.6136363636363634
 40
0.6136363636363634
 40
0.6136363636363634
 40
0.6136363636363634
 10
2270.767353565434
 20
296.9772854470573
 10
2302.471928241093
 20
296.9772854470573
 10
2321.748793683204
 20
294.750704630136
 10
2328.597949891772
 20
290.2551895568633
 72
     4
 94
        3
 73
     0
 74
     0
 95
        8
 96
        4
 40
0.568181818181818
 40
0.568181818181818
 40
0.568181818181818
 40
0.568181818181818
 40
0.5909090909090908
 40
0.5909090909090908
 40
0.5909090909090908
 40
0.5909090909090908
 10
2328.597949891772
 20
290.2551895568633
 10
2334.424573062131
 20
286.57044032451
 10
2337.340909892981
 20
276.5447761570318
 10
2337.340909892981
 20
260.2266009852203
 72
     4
 94
        3
 73
     0
 74
     0
 95
        8
 96
        4
 40
0.5454545454545454
 40
0.5454545454545454
 40
0.5454545454545454
 40
0.5454545454545454
 40
0.568181818181818
 40
0.568181818181818
 40
0.568181818181818
 40
0.568181818181818
 10
2337.340909892981
 20
260.2266009852203
 10
2337.340909892981
 20
260.2266009852203
 10
2337.340909892981
 20
258.7260791303463
 10
2337.340909892981
 20
258.7260791303463
 72
     4
 94
        3
 73
     0
 74
     0
 95
        8
 96
        4
 40
0.5227272727272726
 40
0.5227272727272726
 40
0.5227272727272726
 40
0.5227272727272726
 40
0.5454545454545454
 40
0.5454545454545454
 40
0.5454545454545454
 40
0.5454545454545454
 10
2337.340909892981
 20
258.7260791303463
 10
2337.340909892981
 20
258.7260791303463
 10
2357.900479501361
 20
258.7260791303463
 10
2357.900479501361
 20
258.7260791303463
 72
     4
 94
        3
 73
     0
 74
     0
 95
        8
 96
        4
 40
0.5
 40
0.5
 40
0.5
 40
0.5
 40
0.5227272727272727
 40
0.5227272727272727
 40
0.5227272727272727
 40
0.5227272727272727
 10
2357.900479501361
 20
258.7260791303463
 10
2357.259127418229
 20
274.0156707726133
 10
2355.032546601313
 20
286.0561485597239
 10
2351.305443929512
 20
294.750704630136
 97
        0
 75
     0
 76
     1
 47
0.6038232501168396
 98
        1
 10
2310.614042795117
 20
300.872514357097
1001
ACAD
1010
1342.852040276115
1020
-802.0511165677662
1030
0.0
  0
HATCH
  5
C12
330
AEF
100
AcDbEntity
  8
0
100
AcDbHatch
 10
0.0
 20
0.0
 30
0.0
210
0.0
220
0.0
230
1.0
  2
SOLID
 70
     1
 71
     0
 91
        1
 92
        7
 72
     0
 73
     1
 93
        4
 10
851.9999999999706
 20
490.0000000000002
 10
837.9903393821225
 20
490.0000000000002
 10
837.9903393821226
 20
358.0000000000049
 10
851.9999999999706
 20
358.0000000000049
 97
        0
 75
     0
 76
     1
 47
0.4799687811889218
 98
        1
 10
848.1592469185494
 20
447.8315269871335
1001
ACAD
1010
-14.0096606178485
1020
-583.9999999999934
1030
0.0
  0
HATCH
  5
C13
330
AEF
100
AcDbEntity
  8
0
100
AcDbHatch
 10
0.0
 20
0.0
 30
0.0
210
0.0
220
0.0
230
1.0
  2
SOLID
 70
     1
 71
     0
 91
        2
 92
        7
 72
     0
 73
     1
 93
        4
 10
851.9999999999706
 20
242.0000000000022
 10
837.9999999999711
 20
242.0000000000022
 10
837.9999999999711
 20
228.0000000000027
 10
851.9999999999706
 20
228.0000000000027
 97
        0
 92
        7
 72
     0
 73
     1
 93
        4
 10
851.9999999999704
 20
142.0000000000058
 10
837.9903393821223
 20
142.0000000000058
 10
837.9903393821226
 20
10.00000000001046
 10
851.9999999999704
 20
10.00000000001046
 97
        0
 75
     0
 76
     1
 47
0.4799687811889219
 98
        2
 10
846.2686203748397
 20
231.8097694508487
 10
840.0231254400541
 20
129.0964493472082
1001
ACAD
1010
-14.00966061784856
1020
-932.0000000000002
1030
0.0
  0
HATCH
  5
C14
330
AEF
100
AcDbEntity
  8
0
100
AcDbHatch
 10
0.0
 20
0.0
 30
0.0
210
0.0
220
0.0
230
1.0
  2
SOLID
 70
     1
 71
     0
 91
        1
 92
        7
 72
     0
 73
     1
 93
        6
 10
1170.999999999959
 20
313.9999999999997
 10
1149.999999999959
 20
313.9999999999997
 10
1149.999999999959
 20
142.0000000000058
 10
1305.999999999954
 20
142.0000000000058
 10
1305.999999999954
 20
159.0000000000051
 10
1170.999999999959
 20
159.0000000000051
 97
        0
 75
     0
 76
     1
 47
0.6038232501168388
 98
        1
 10
1161.354478802202
 20
287.6044928347384
1001
ACAD
1010
308.0
1020
-800.0
1030
0.0
  0
HATCH
  5
C15
330
AEF
100
AcDbEntity
  8
0
100
AcDbHatch
 10
0.0
 20
0.0
 30
0.0
210
0.0
220
0.0
230
1.0
  2
SOLID
 70
     1
 71
     0
 91
        2
 92
        7
 72
     0
 73
     1
 93
        8
 10
1487.599999999948
 20
313.9999999999992
 10
1460.399999999948
 20
313.9999999999997
 10
1357.999999999952
 20
142.0000000000058
 10
1381.999999999951
 20
142.0000000000058
 10
1404.623255813881
 20
180.0000000000044
 10
1543.376744186014
 20
180.0000000000044
 10
1565.999999999967
 20
142.0000000000058
 10
1589.999999999944
 20
142.0000000000053
 97
        0
 92
       22
 72
     0
 73
     1
 93
        3
 10
1473.999999999948
 20
296.5312500000376
 10
1533.255813953457
 20
197.0000000000033
 10
1414.744186046439
 20
197.0000000000037
 97
        0
 75
     0
 76
     1
 47
0.6038232501168388
 98
        2
 10
1478.05725154585
 20
306.3230146564223
 10
1478.05725154585
 20
306.3230146564223
1001
ACAD
1010
516.0000000000001
1020
-800.0000000000001
1030
0.0
  0
HATCH
  5
C16
330
AEF
100
AcDbEntity
  8
0
100
AcDbHatch
 10
0.0
 20
0.0
 30
0.0
210
0.0
220
0.0
230
1.0
  2
SOLID
 70
     1
 71
     0
 91
        1
 92
        7
 72
     0
 73
     1
 93
       10
 10
1669.999999999941
 20
313.9999999999992
 10
1635.999999999941
 20
313.9999999999997
 10
1635.999999999941
 20
142.0000000000058
 10
1656.999999999941
 20
142.0000000000053
 10
1656.999999999941
 20
297.3420709635973
 10
1815.999999999935
 20
142.0000000000058
 10
1849.999999999934
 20
142.0000000000053
 10
1849.999999999934
 20
313.9999999999997
 10
1828.999999999935
 20
313.9999999999997
 10
1828.999999999935
 20
158.6579290364076
 97
        0
 75
     0
 76
     1
 47
0.6038232501168388
 98
        1
 10
1791.894985216753
 20
182.5167243711423
1001
ACAD
1010
804.0
1020
-800.0000000000001
1030
0.0
  0
HATCH
  5
C17
330
AEF
100
AcDbEntity
  8
0
100
AcDbHatch
 10
0.0
 20
0.0
 30
0.0
210
0.0
220
0.0
230
1.0
  2
SOLID
 70
     1
 71
     0
 91
        1
 92
        7
 72
     0
 73
     1
 93
       12
 10
2093.999999999926
 20
313.9999999999992
 10
1921.999999999932
 20
313.9999999999992
 10
1921.999999999932
 20
142.0000000000053
 10
2093.999999999926
 20
142.0000000000058
 10
2093.999999999926
 20
159.0000000000051
 10
1942.999999999931
 20
159.0000000000046
 10
1942.999999999931
 20
222.0000000000024
 10
2085.999999999925
 20
222.0000000000024
 10
2085.999999999925
 20
239.0000000000019
 10
1942.999999999931
 20
239.0000000000019
 10
1942.999999999931
 20
296.9999999999998
 10
2093.999999999926
 20
296.9999999999998
 97
        0
 75
     0
 76
     1
 47
0.6038232501168396
 98
        1
 10
1998.471721812516
 20
301.4763384189415
1001
ACAD
1010
1100.0
1020
-800.0000000000003
1030
0.0
  0
ENDBLK
  5
AF1
330
AEF
100
AcDbEntity
  8
0
100
AcDbBlockEnd
  0
ENDSEC
  0
SECTION
  2
ENTITIES
  0
SPLINE
  5
158
330
23
100
AcDbEntity
  8
0
100
AcDbSpline
210
0.0
220
0.0
230
1.0
 70
    24
 71
     3
 72
     8
 73
     4
 74
     0
 42
0.0000000001
 43
0.0000000001
 40
0.0
 40
0.0
 40
0.0
 40
0.0
 40
0.03125
 40
0.03125
 40
0.03125
 40
0.03125
 10
143.9934758041759
 20
227.9999999999934
 30
0.0
 10
143.9934758041759
 20
227.9999999999934
 30
0.0
 10
131.2874439685042
 20
227.9999999999934
 30
0.0
 10
131.2874439685042
 20
227.9999999999934
 30
0.0
  0
SPLINE
  5
159
330
23
100
AcDbEntity
  8
0
100
AcDbSpline
210
0.0
220
0.0
230
1.0
 70
    24
 71
     3
 72
     8
 73
     4
 74
     0
 42
0.0000000001
 43
0.0000000001
 40
0.03125
 40
0.03125
 40
0.03125
 40
0.03125
 40
0.0625
 40
0.0625
 40
0.0625
 40
0.0625
 10
131.2874439685042
 20
227.9999999999934
 30
0.0
 10
131.2874439685042
 20
227.9999999999934
 30
0.0
 10
131.2874439685042
 20
238.4932360548752
 30
0.0
 10
131.2874439685042
 20
238.4932360548752
 30
0.0
  0
SPLINE
  5
15A
330
23
100
AcDbEntity
  8
0
100
AcDbSpline
210
0.0
220
0.0
230
1.0
 70
     8
 71
     3
 72
     8
 73
     4
 74
     0
 42
0.0000000001
 43
0.0000000001
 40
0.0625
 40
0.0625
 40
0.0625
 40
0.0625
 40
0.09375
 40
0.09375
 40
0.09375
 40
0.09375
 10
131.2874439685042
 20
238.4932360548752
 30
0.0
 10
129.193973961304
 20
234.8629412446736
 30
0.0
 10
126.562010223909
 20
232.2612299640438
 30
0.0
 10
123.4460071784992
 20
230.718354669715
 30
0.0
  0
SPLINE
  5
15B
330
23
100
AcDbEntity
  8
0
100
AcDbSpline
210
0.0
220
0.0
230
1.0
 70
     8
 71
     3
 72
     8
 73
     4
 74
     0
 42
0.0000000001
 43
0.0000000001
 40
0.09375
 40
0.09375
 40
0.09375
 40
0.09375
 40
0.125
 40
0.125
 40
0.125
 40
0.125
 10
123.4460071784992
 20
230.718354669715
 30
0.0
 10
120.2997516763257
 20
229.1754793753847
 30
0.0
 10
116.3971847553739
 20
228.2074007593293
 30
0.0
 10
111.7020034675356
 20
227.8080683302259
 30
0.0
  0
SPLINE
  5
15C
330
23
100
AcDbEntity
  8
0
100
AcDbSpline
210
0.0
220
0.0
230
1.0
 70
     8
 71
     3
 72
     8
 73
     4
 74
     0
 42
0.0000000001
 43
0.0000000001
 40
0.125
 40
0.125
 40
0.125
 40
0.125
 40
0.15625
 40
0.15625
 40
0.15625
 40
0.15625
 10
111.7020034675356
 20
227.8080683302259
 30
0.0
 10
106.4985809062614
 20
227.4208368837936
 30
0.0
 10
98.66319460759179
 20
227.2393221432738
 30
0.0
 10
88.25029899369383
 20
227.2393221432738
 30
0.0
  0
SPLINE
  5
15D
330
23
100
AcDbEntity
  8
0
100
AcDbSpline
210
0.0
220
0.0
230
1.0
 70
    24
 71
     3
 72
     8
 73
     4
 74
     0
 42
0.0000000001
 43
0.0000000001
 40
0.15625
 40
0.15625
 40
0.15625
 40
0.15625
 40
0.1875
 40
0.1875
 40
0.1875
 40
0.1875
 10
88.25029899369383
 20
227.2393221432738
 30
0.0
 10
88.25029899369383
 20
227.2393221432738
 30
0.0
 10
77.171849331256
 20
227.2393221432738
 30
0.0
 10
77.171849331256
 20
227.2393221432738
 30
0.0
  0
SPLINE
  5
15E
330
23
100
AcDbEntity
  8
0
100
AcDbSpline
210
0.0
220
0.0
230
1.0
 70
     8
 71
     3
 72
     8
 73
     4
 74
     0
 42
0.0000000001
 43
0.0000000001
 40
0.1875
 40
0.1875
 40
0.1875
 40
0.1875
 40
0.21875
 40
0.21875
 40
0.21875
 40
0.21875
 10
77.171849331256
 20
227.2393221432738
 30
0.0
 10
69.7297449703683
 20
227.2393221432738
 30
0.0
 10
63.37067856119074
 20
227.7778158734549
 30
0.0
 10
58.10675108640726
 20
228.8729548078626
 30
0.0
  0
SPLINE
  5
15F
330
23
100
AcDbEntity
  8
0
100
AcDbSpline
210
0.0
220
0.0
230
1.0
 70
     8
 71
     3
 72
     8
 73
     4
 74
     0
 42
0.0000000001
 43
0.0000000001
 40
0.21875
 40
0.21875
 40
0.21875
 40
0.21875
 40
0.25
 40
0.25
 40
0.25
 40
0.25
 10
58.10675108640726
 20
228.8729548078626
 30
0.0
 10
52.84282361162468
 20
229.9620432509217
 30
0.0
 10
48.51067180479731
 20
232.3822397910475
 30
0.0
 10
45.09214419187219
 20
236.1335444282525
 30
0.0
  0
SPLINE
  5
160
330
23
100
AcDbEntity
  8
0
100
AcDbSpline
210
0.0
220
0.0
230
1.0
 70
     8
 71
     3
 72
    12
 73
     8
 74
     0
 42
0.0000000001
 43
0.0000000001
 40
0.25
 40
0.25
 40
0.25
 40
0.25
 40
0.28125
 40
0.28125
 40
0.28125
 40
0.28125
 40
0.3125
 40
0.3125
 40
0.3125
 40
0.3125
 10
45.09214419187219
 20
236.1335444282525
 30
0.0
 10
41.67361657894753
 20
239.8606471000483
 30
0.0
 10
39.97947900085046
 20
245.3968466855896
 30
0.0
 10
39.97947900085046
 20
252.6876887627092
 30
0.0
 10
39.97947900085046
 20
252.6876887627092
 30
0.0
 10
39.97947900085046
 20
258.9559978016613
 30
0.0
 10
40.70553796289232
 20
263.8568957953991
 30
0.0
 10
42.1879083437193
 20
267.4266856920986
 30
0.0
  0
SPLINE
  5
161
330
23
100
AcDbEntity
  8
0
100
AcDbSpline
210
0.0
220
0.0
230
1.0
 70
     8
 71
     3
 72
     8
 73
     4
 74
     0
 42
0.0000000001
 43
0.0000000001
 40
0.3125
 40
0.3125
 40
0.3125
 40
0.3125
 40
0.34375
 40
0.34375
 40
0.34375
 40
0.34375
 10
42.1879083437193
 20
267.4266856920986
 30
0.0
 10
43.67027872454627
 20
271.0327785368919
 30
0.0
 10
46.12072772142937
 20
273.694994731038
 30
0.0
 10
49.59976024785601
 20
275.5101421361179
 30
0.0
  0
SPLINE
  5
162
330
23
100
AcDbEntity
  8
0
100
AcDbSpline
210
0.0
220
0.0
230
1.0
 70
     8
 71
     3
 72
     8
 73
     4
 74
     0
 42
0.0000000001
 43
0.0000000001
 40
0.34375
 40
0.34375
 40
0.34375
 40
0.34375
 40
0.375
 40
0.375
 40
0.375
 40
0.375
 10
49.59976024785601
 20
275.5101421361179
 30
0.0
 10
53.05459080889477
 20
277.3252895412251
 30
0.0
 10
57.89498388915172
 20
278.4748828977718
 30
0.0
 10
64.12698997997677
 20
279.0194271193014
 30
0.0
  0
SPLINE
  5
163
330
23
100
AcDbEntity
  8
0
100
AcDbSpline
210
0.0
220
0.0
230
1.0
 70
     8
 71
     3
 72
    12
 73
     8
 74
     0
 42
0.0000000001
 43
0.0000000001
 40
0.375
 40
0.375
 40
0.375
 40
0.375
 40
0.40625
 40
0.40625
 40
0.40625
 40
0.40625
 40
0.4375
 40
0.4375
 40
0.4375
 40
0.4375
 10
64.12698997997677
 20
279.0194271193014
 30
0.0
 10
69.54823022986284
 20
279.5942237975891
 30
0.0
 10
77.77689846629392
 20
279.8967483650985
 30
0.0
 10
88.82509567197439
 20
279.8967483650985
 30
0.0
 10
88.82509567197439
 20
279.8967483650985
 30
0.0
 10
97.68906550019437
 20
279.8967483650985
 30
0.0
 10
105.6515121172092
 20
279.654728711091
 30
0.0
 10
112.7608394538306
 20
279.2009418598212
 30
0.0
  0
SPLINE
  5
164
330
23
100
AcDbEntity
  8
0
100
AcDbSpline
210
0.0
220
0.0
230
1.0
 70
     8
 71
     3
 72
    12
 73
     8
 74
     0
 42
0.0000000001
 43
0.0000000001
 40
0.4375
 40
0.4375
 40
0.4375
 40
0.4375
 40
0.46875
 40
0.46875
 40
0.46875
 40
0.46875
 40
0.5
 40
0.5
 40
0.5
 40
0.5
 10
112.7608394538306
 20
279.2009418598212
 30
0.0
 10
117.3350109146786
 20
278.837912378796
 30
0.0
 10
120.9350532681151
 20
278.0210960465023
 30
0.0
 10
123.5670170055032
 20
276.7504928629377
 30
0.0
 10
123.5670170055032
 20
276.7504928629377
 30
0.0
 10
126.1989807428913
 20
275.4798896793728
 30
0.0
 10
128.770439566771
 20
273.1504505095085
 30
0.0
 10
131.2874439685042
 20
269.7561248619644
 30
0.0
  0
SPLINE
  5
165
330
23
100
AcDbEntity
  8
0
100
AcDbSpline
210
0.0
220
0.0
230
1.0
 70
     8
 71
     3
 72
    12
 73
     8
 74
     0
 42
0.0000000001
 43
0.0000000001
 40
0.5
 40
0.5
 40
0.5
 40
0.5
 40
0.53125
 40
0.53125
 40
0.53125
 40
0.53125
 40
0.5625
 40
0.5625
 40
0.5625
 40
0.5625
 10
131.2874439685042
 20
269.7561248619644
 30
0.0
 10
131.2874439685042
 20
269.7561248619644
 30
0.0
 10
131.2874439685042
 20
278.837912378796
 30
0.0
 10
131.2874439685042
 20
278.837912378796
 30
0.0
 10
131.2874439685042
 20
278.837912378796
 30
0.0
 10
131.2874439685042
 20
283.8295677428076
 30
0.0
 10
130.8578590826368
 20
288.0951641447845
 30
0.0
 10
130.0168407849401
 20
291.671004532834
 30
0.0
  0
SPLINE
  5
166
330
23
100
AcDbEntity
  8
0
100
AcDbSpline
210
0.0
220
0.0
230
1.0
 70
     8
 71
     3
 72
     8
 73
     4
 74
     0
 42
0.0000000001
 43
0.0000000001
 40
0.5625
 40
0.5625
 40
0.5625
 40
0.5625
 40
0.59375
 40
0.59375
 40
0.59375
 40
0.59375
 10
130.0168407849401
 20
291.671004532834
 30
0.0
 10
129.1334690477947
 20
295.2105419727483
 30
0.0
 10
127.2578167291931
 20
297.9635155371529
 30
0.0
 10
124.3535808810397
 20
299.8754708038413
 30
0.0
  0
SPLINE
  5
167
330
23
100
AcDbEntity
  8
0
100
AcDbSpline
210
0.0
220
0.0
230
1.0
 70
     8
 71
     3
 72
    12
 73
     8
 74
     0
 42
0.0000000001
 43
0.0000000001
 40
0.59375
 40
0.59375
 40
0.59375
 40
0.59375
 40
0.625
 40
0.625
 40
0.625
 40
0.625
 40
0.65625
 40
0.65625
 40
0.65625
 40
0.65625
 10
124.3535808810397
 20
299.8754708038413
 30
0.0
 10
120.4510139600943
 20
302.5376869979872
 30
0.0
 10
110.3406429137117
 20
303.868795095067
 30
0.0
 10
94.02851823324864
 20
303.868795095067
 30
0.0
 10
94.02851823324864
 20
303.868795095067
 30
0.0
 10
83.0408259410774
 20
303.868795095067
 30
0.0
 10
74.81215770463222
 20
303.5057656140428
 30
0.0
 10
69.36671548935056
 20
302.7434037039023
 30
0.0
  0
SPLINE
  5
168
330
23
100
AcDbEntity
  8
0
100
AcDbSpline
210
0.0
220
0.0
230
1.0
 70
     8
 71
     3
 72
     8
 73
     4
 74
     0
 42
0.0000000001
 43
0.0000000001
 40
0.65625
 40
0.65625
 40
0.65625
 40
0.65625
 40
0.6875
 40
0.6875
 40
0.6875
 40
0.6875
 10
69.36671548935056
 20
302.7434037039023
 30
0.0
 10
64.88330139876189
 20
302.1746575169776
 30
0.0
 10
61.79755081010398
 20
300.7467415582884
 30
0.0
 10
60.10341323201373
 20
298.5080597586824
 30
0.0
  0
SPLINE
  5
169
330
23
100
AcDbEntity
  8
0
100
AcDbSpline
210
0.0
220
0.0
230
1.0
 70
     8
 71
     3
 72
     8
 73
     4
 74
     0
 42
0.0000000001
 43
0.0000000001
 40
0.6875
 40
0.6875
 40
0.6875
 40
0.6875
 40
0.71875
 40
0.71875
 40
0.71875
 40
0.71875
 10
60.10341323201373
 20
298.5080597586824
 30
0.0
 10
58.40927565392348
 20
296.2693779590623
 30
0.0
 10
57.56220686487768
 20
292.8508503461388
 30
0.0
 10
57.56220686487768
 20
288.2827293766385
 30
0.0
  0
SPLINE
  5
16A
330
23
100
AcDbEntity
  8
0
100
AcDbSpline
210
0.0
220
0.0
230
1.0
 70
    24
 71
     3
 72
     8
 73
     4
 74
     0
 42
0.0000000001
 43
0.0000000001
 40
0.71875
 40
0.71875
 40
0.71875
 40
0.71875
 40
0.75
 40
0.75
 40
0.75
 40
0.75
 10
57.56220686487768
 20
288.2827293766385
 30
0.0
 10
57.56220686487768
 20
288.2827293766385
 30
0.0
 10
43.79128855155022
 20
288.2827293766385
 30
0.0
 10
43.79128855155022
 20
288.2827293766385
 30
0.0
  0
SPLINE
  5
16B
330
23
100
AcDbEntity
  8
0
100
AcDbSpline
210
0.0
220
0.0
230
1.0
 70
     8
 71
     3
 72
     8
 73
     4
 74
     0
 42
0.0000000001
 43
0.0000000001
 40
0.75
 40
0.75
 40
0.75
 40
0.75
 40
0.78125
 40
0.78125
 40
0.78125
 40
0.78125
 10
43.79128855155022
 20
288.2827293766385
 30
0.0
 10
43.79128855155022
 20
294.4542305539693
 30
0.0
 10
44.66860979734656
 20
299.3248760909631
 30
0.0
 10
46.45350474569613
 20
302.8704640222546
 30
0.0
  0
SPLINE
  5
16C
330
23
100
AcDbEntity
  8
0
100
AcDbSpline
210
0.0
220
0.0
230
1.0
 70
     8
 71
     3
 72
     8
 73
     4
 74
     0
 42
0.0000000001
 43
0.0000000001
 40
0.78125
 40
0.78125
 40
0.78125
 40
0.78125
 40
0.8125
 40
0.8125
 40
0.8125
 40
0.8125
 10
46.45350474569613
 20
302.8704640222546
 30
0.0
 10
48.23839969403252
 20
306.4402539189542
 30
0.0
 10
51.02162571518874
 20
309.0419651995843
 30
0.0
 10
54.7487283869782
 20
310.7058503209167
 30
0.0
  0
SPLINE
  5
16D
330
23
100
AcDbEntity
  8
0
100
AcDbSpline
210
0.0
220
0.0
230
1.0
 70
     8
 71
     3
 72
     8
 73
     4
 74
     0
 42
0.0000000001
 43
0.0000000001
 40
0.8125
 40
0.8125
 40
0.8125
 40
0.8125
 40
0.84375
 40
0.84375
 40
0.84375
 40
0.84375
 10
54.7487283869782
 20
310.7058503209167
 30
0.0
 10
58.50003302418236
 20
312.3697354422635
 30
0.0
 10
63.40698150928346
 20
313.4588238853226
 30
0.0
 10
69.51797777311185
 20
314.0336205635959
 30
0.0
  0
SPLINE
  5
16E
330
23
100
AcDbEntity
  8
0
100
AcDbSpline
210
0.0
220
0.0
230
1.0
 70
     8
 71
     3
 72
    12
 73
     8
 74
     0
 42
0.0000000001
 43
0.0000000001
 40
0.84375
 40
0.84375
 40
0.84375
 40
0.84375
 40
0.875
 40
0.875
 40
0.875
 40
0.875
 40
0.90625
 40
0.90625
 40
0.90625
 40
0.90625
 10
69.51797777311185
 20
314.0336205635959
 30
0.0
 10
75.96175106120018
 20
314.7657300169795
 30
0.0
 10
82.55678663304252
 20
315.1287594980037
 30
0.0
 10
89.33938743675298
 20
315.1287594980037
 30
0.0
 10
89.33938743675298
 20
315.1287594980037
 30
0.0
 10
106.0447940549779
 20
315.1287594980037
 30
0.0
 10
118.303089530727
 20
314.0941254770977
 30
0.0
 10
126.1687282861339
 20
312.0067059612394
 30
0.0
  0
SPLINE
  5
16F
330
23
100
AcDbEntity
  8
0
100
AcDbSpline
210
0.0
220
0.0
230
1.0
 70
     8
 71
     3
 72
     8
 73
     4
 74
     0
 42
0.0000000001
 43
0.0000000001
 40
0.90625
 40
0.90625
 40
0.90625
 40
0.90625
 40
0.9375
 40
0.9375
 40
0.9375
 40
0.9375
 10
126.1687282861339
 20
312.0067059612394
 30
0.0
 10
133.344611027619
 20
310.1310536426435
 30
0.0
 10
138.0942467376167
 20
306.6822735729603
 30
0.0
 10
140.45393836424
 20
301.7208706656937
 30
0.0
  0
SPLINE
  5
170
330
23
100
AcDbEntity
  8
0
100
AcDbSpline
210
0.0
220
0.0
230
1.0
 70
     8
 71
     3
 72
    12
 73
     8
 74
     0
 42
0.0000000001
 43
0.0000000001
 40
0.9375
 40
0.9375
 40
0.9375
 40
0.9375
 40
0.96875
 40
0.96875
 40
0.96875
 40
0.96875
 40
1.0
 40
1.0
 40
1.0
 40
1.0
 10
140.45393836424
 20
301.7208706656937
 30
0.0
 10
142.8136299908633
 20
296.7231648103333
 30
0.0
 10
143.9934758041754
 20
290.0676243249746
 30
0.0
 10
143.9934758041754
 20
281.7118957702056
 30
0.0
 10
143.9934758041754
 20
281.7118957702056
 30
0.0
 10
143.9934758041754
 20
281.7118957702056
 30
0.0
 10
143.9934758041759
 20
227.9999999999934
 30
0.0
 10
143.9934758041759
 20
227.9999999999934
 30
0.0
  0
SPLINE
  5
171
330
23
100
AcDbEntity
  8
0
100
AcDbSpline
210
0.0
220
0.0
230
1.0
 70
     8
 71
     3
 72
     8
 73
     4
 74
     0
 42
0.0000000001
 43
0.0000000001
 40
0.0
 40
0.0
 40
0.0
 40
0.0
 40
0.0833333333333333
 40
0.0833333333333333
 40
0.0833333333333333
 40
0.0833333333333333
 10
53.56888257367291
 20
252.6876887627092
 30
0.0
 10
53.56888257367291
 20
248.8153742985145
 30
0.0
 10
54.44620381946197
 20
245.8808859936174
 30
0.0
 10
56.23109876780517
 20
243.8539713912466
 30
0.0
  0
SPLINE
  5
172
330
23
100
AcDbEntity
  8
0
100
AcDbSpline
210
0.0
220
0.0
230
1.0
 70
     8
 71
     3
 72
     8
 73
     4
 74
     0
 42
0.0000000001
 43
0.0000000001
 40
0.0833333333333333
 40
0.0833333333333333
 40
0.0833333333333333
 40
0.0833333333333333
 40
0.1666666666666667
 40
0.1666666666666667
 40
0.1666666666666667
 40
0.1666666666666667
 10
56.23109876780517
 20
243.8539713912466
 30
0.0
 10
57.98574125939694
 20
241.827056788903
 30
0.0
 10
60.22442305901723
 20
240.5201506572317
 30
0.0
 10
62.9168917099073
 20
239.9211520135501
 30
0.0
  0
SPLINE
  5
173
330
23
100
AcDbEntity
  8
0
100
AcDbSpline
210
0.0
220
0.0
230
1.0
 70
     8
 71
     3
 72
     8
 73
     4
 74
     0
 42
0.0000000001
 43
0.0000000001
 40
0.1666666666666667
 40
0.1666666666666667
 40
0.1666666666666667
 40
0.1666666666666667
 40
0.25
 40
0.25
 40
0.25
 40
0.25
 10
62.9168917099073
 20
239.9211520135501
 30
0.0
 10
65.60936036080375
 20
239.3403048439269
 30
0.0
 10
69.15494829208774
 20
238.9772753628898
 30
0.0
 10
73.57180697781905
 20
238.8562655358991
 30
0.0
  0
SPLINE
  5
174
330
23
100
AcDbEntity
  8
0
100
AcDbSpline
210
0.0
220
0.0
230
1.0
 70
    24
 71
     3
 72
     8
 73
     4
 74
     0
 42
0.0000000001
 43
0.0000000001
 40
0.25
 40
0.25
 40
0.25
 40
0.25
 40
0.3333333333333333
 40
0.3333333333333333
 40
0.3333333333333333
 40
0.3333333333333333
 10
73.57180697781905
 20
238.8562655358991
 30
0.0
 10
73.57180697781905
 20
238.8562655358991
 30
0.0
 10
88.40156127745514
 20
238.4932360548752
 30
0.0
 10
88.40156127745514
 20
238.4932360548752
 30
0.0
  0
SPLINE
  5
175
330
23
100
AcDbEntity
  8
0
100
AcDbSpline
210
0.0
220
0.0
230
1.0
 70
     8
 71
     3
 72
     8
 73
     4
 74
     0
 42
0.0000000001
 43
0.0000000001
 40
0.3333333333333333
 40
0.3333333333333333
 40
0.3333333333333333
 40
0.3333333333333333
 40
0.4166666666666666
 40
0.4166666666666666
 40
0.4166666666666666
 40
0.4166666666666666
 10
88.40156127745514
 20
238.4932360548752
 30
0.0
 10
104.2901515633853
 20
238.4932360548752
 30
0.0
 10
115.1265815718093
 20
239.3100523871702
 30
0.0
 10
120.9653057248729
 20
240.8831801382429
 30
0.0
  0
SPLINE
  5
176
330
23
100
AcDbEntity
  8
0
100
AcDbSpline
210
0.0
220
0.0
230
1.0
 70
     8
 71
     3
 72
    12
 73
     8
 74
     0
 42
0.0000000001
 43
0.0000000001
 40
0.4166666666666666
 40
0.4166666666666666
 40
0.4166666666666666
 40
0.4166666666666666
 40
0.5
 40
0.5
 40
0.5
 40
0.5
 40
0.5833333333333333
 40
0.5833333333333333
 40
0.5833333333333333
 40
0.5833333333333333
 10
120.9653057248729
 20
240.8831801382429
 30
0.0
 10
127.838663898829
 20
242.7648829481874
 30
0.0
 10
131.2874439685042
 20
247.0909842636789
 30
0.0
 10
131.2874439685042
 20
253.9280394895287
 30
0.0
 10
131.2874439685042
 20
253.9280394895287
 30
0.0
 10
131.2874439685042
 20
259.7728141339552
 30
0.0
 10
128.9217018505392
 20
263.7661384251534
 30
0.0
 10
124.2023185972857
 20
265.9443153112717
 30
0.0
  0
SPLINE
  5
177
330
23
100
AcDbEntity
  8
0
100
AcDbSpline
210
0.0
220
0.0
230
1.0
 70
     8
 71
     3
 72
    12
 73
     8
 74
     0
 42
0.0000000001
 43
0.0000000001
 40
0.5833333333333333
 40
0.5833333333333333
 40
0.5833333333333333
 40
0.5833333333333333
 40
0.6666666666666666
 40
0.6666666666666666
 40
0.6666666666666666
 40
0.6666666666666666
 40
0.75
 40
0.75
 40
0.75
 40
0.75
 10
124.2023185972857
 20
265.9443153112717
 30
0.0
 10
119.9064697385643
 20
267.8502200866116
 30
0.0
 10
111.9137706647921
 20
268.8243491940156
 30
0.0
 10
100.2665748154299
 20
268.8243491940156
 30
0.0
 10
100.2665748154299
 20
268.8243491940156
 30
0.0
 10
98.66319460759179
 20
268.8243491940156
 30
0.0
 10
96.57577509173279
 20
268.7940967372719
 30
0.0
 10
94.02851823324864
 20
268.7275413324072
 30
0.0
  0
SPLINE
  5
178
330
23
100
AcDbEntity
  8
0
100
AcDbSpline
210
0.0
220
0.0
230
1.0
 70
     8
 71
     3
 72
    12
 73
     8
 74
     0
 42
0.0000000001
 43
0.0000000001
 40
0.75
 40
0.75
 40
0.75
 40
0.75
 40
0.8333333333333333
 40
0.8333333333333333
 40
0.8333333333333333
 40
0.8333333333333333
 40
0.9166666666666667
 40
0.9166666666666667
 40
0.9166666666666667
 40
0.9166666666666667
 10
94.02851823324864
 20
268.7275413324072
 30
0.0
 10
91.48731186611939
 20
268.6670364189053
 30
0.0
 10
89.82342674477377
 20
268.6367839621615
 30
0.0
 10
88.97635795572796
 20
268.6367839621615
 30
0.0
 10
88.97635795572796
 20
268.6367839621615
 30
0.0
 10
75.17518718565725
 20
268.6367839621615
 30
0.0
 10
65.66986527430572
 20
267.6687053461061
 30
0.0
 10
60.49669516978156
 20
265.7628005707532
 30
0.0
  0
SPLINE
  5
179
330
23
100
AcDbEntity
  8
0
100
AcDbSpline
210
0.0
220
0.0
230
1.0
 70
     8
 71
     3
 72
     8
 73
     4
 74
     0
 42
0.0000000001
 43
0.0000000001
 40
0.9166666666666667
 40
0.9166666666666667
 40
0.9166666666666667
 40
0.9166666666666667
 40
1.0
 40
1.0
 40
1.0
 40
1.0
 10
60.49669516978156
 20
265.7628005707532
 30
0.0
 10
55.86806928679425
 20
264.0384105359175
 30
0.0
 10
53.56888257367291
 20
259.6820567636822
 30
0.0
 10
53.56888257367291
 20
252.6876887627092
 30
0.0
  0
SPLINE
  5
17B
330
23
100
AcDbEntity
  8
0
100
AcDbSpline
210
0.0
220
0.0
230
1.0
 70
    24
 71
     3
 72
     8
 73
     4
 74
     0
 42
0.0000000001
 43
0.0000000001
 40
0.0
 40
0.0
 40
0.0
 40
0.0
 40
0.0344827586206897
 40
0.0344827586206897
 40
0.0344827586206897
 40
0.0344827586206897
 10
214.1900418594273
 20
313.9999999999933
 30
0.0
 10
214.1900418594273
 20
313.9999999999933
 30
0.0
 10
273.2367869471854
 20
313.9999999999933
 30
0.0
 10
273.2367869471854
 20
313.9999999999933
 30
0.0
  0
SPLINE
  5
17C
330
23
100
AcDbEntity
  8
0
100
AcDbSpline
210
0.0
220
0.0
230
1.0
 70
    24
 71
     3
 72
     8
 73
     4
 74
     0
 42
0.0000000001
 43
0.0000000001
 40
0.0344827586206897
 40
0.0344827586206897
 40
0.0344827586206897
 40
0.0344827586206897
 40
0.0689655172413793
 40
0.0689655172413793
 40
0.0689655172413793
 40
0.0689655172413793
 10
273.2367869471854
 20
313.9999999999933
 30
0.0
 10
273.2367869471854
 20
313.9999999999933
 30
0.0
 10
273.2367869471854
 20
303.1091155694161
 30
0.0
 10
273.2367869471854
 20
303.1091155694161
 30
0.0
  0
SPLINE
  5
17D
330
23
100
AcDbEntity
  8
0
100
AcDbSpline
210
0.0
220
0.0
230
1.0
 70
    24
 71
     3
 72
     8
 73
     4
 74
     0
 42
0.0000000001
 43
0.0000000001
 40
0.0689655172413793
 40
0.0689655172413793
 40
0.0689655172413793
 40
0.0689655172413793
 40
0.103448275862069
 40
0.103448275862069
 40
0.103448275862069
 40
0.103448275862069
 10
273.2367869471854
 20
303.1091155694161
 30
0.0
 10
273.2367869471854
 20
303.1091155694161
 30
0.0
 10
214.1900418594273
 20
303.1091155694161
 30
0.0
 10
214.1900418594273
 20
303.1091155694161
 30
0.0
  0
SPLINE
  5
17E
330
23
100
AcDbEntity
  8
0
100
AcDbSpline
210
0.0
220
0.0
230
1.0
 70
     8
 71
     3
 72
    12
 73
     8
 74
     0
 42
0.0000000001
 43
0.0000000001
 40
0.103448275862069
 40
0.103448275862069
 40
0.103448275862069
 40
0.103448275862069
 40
0.1379310344827586
 40
0.1379310344827586
 40
0.1379310344827586
 40
0.1379310344827586
 40
0.1724137931034483
 40
0.1724137931034483
 40
0.1724137931034483
 40
0.1724137931034483
 10
214.1900418594273
 20
303.1091155694161
 30
0.0
 10
214.1900418594273
 20
303.1091155694161
 30
0.0
 10
214.1900418594273
 20
261.9509910200465
 30
0.0
 10
214.1900418594273
 20
261.9509910200465
 30
0.0
 10
214.1900418594273
 20
261.9509910200465
 30
0.0
 10
214.1900418594273
 20
255.440662327114
 30
0.0
 10
214.885848364725
 20
250.5397643333621
 30
0.0
 10
216.3077138320436
 20
247.2119940906829
 30
0.0
  0
SPLINE
  5
17F
330
23
100
AcDbEntity
  8
0
100
AcDbSpline
210
0.0
220
0.0
230
1.0
 70
     8
 71
     3
 72
     8
 73
     4
 74
     0
 42
0.0000000001
 43
0.0000000001
 40
0.1724137931034483
 40
0.1724137931034483
 40
0.1724137931034483
 40
0.1724137931034483
 40
0.206896551724138
 40
0.206896551724138
 40
0.206896551724138
 40
0.206896551724138
 10
216.3077138320436
 20
247.2119940906829
 30
0.0
 10
217.6993268426186
 20
243.8842238480178
 30
0.0
 10
220.0892709259856
 20
241.6152895916408
 30
0.0
 10
223.4533441167641
 20
240.3688883734714
 30
0.0
  0
SPLINE
  5
180
330
23
100
AcDbEntity
  8
0
100
AcDbSpline
210
0.0
220
0.0
230
1.0
 70
     8
 71
     3
 72
    12
 73
     8
 74
     0
 42
0.0000000001
 43
0.0000000001
 40
0.206896551724138
 40
0.206896551724138
 40
0.206896551724138
 40
0.206896551724138
 40
0.2413793103448276
 40
0.2413793103448276
 40
0.2413793103448276
 40
0.2413793103448276
 40
0.2758620689655173
 40
0.2758620689655173
 40
0.2758620689655173
 40
0.2758620689655173
 10
223.4533441167641
 20
240.3688883734714
 30
0.0
 10
226.8416192729446
 20
239.128537646665
 30
0.0
 10
231.8030221802055
 20
238.4932360548754
 30
0.0
 10
238.3738557866527
 20
238.4932360548754
 30
0.0
 10
238.3738557866527
 20
238.4932360548754
 30
0.0
 10
243.9705602856961
 20
238.4932360548754
 30
0.0
 10
248.5689337119393
 20
238.8562655358993
 30
0.0
 10
252.0842691864723
 20
239.5883749892829
 30
0.0
  0
SPLINE
  5
181
330
23
100
AcDbEntity
  8
0
100
AcDbSpline
210
0.0
220
0.0
230
1.0
 70
     8
 71
     3
 72
     8
 73
     4
 74
     0
 42
0.0000000001
 43
0.0000000001
 40
0.2758620689655173
 40
0.2758620689655173
 40
0.2758620689655173
 40
0.2758620689655173
 40
0.3103448275862069
 40
0.3103448275862069
 40
0.3103448275862069
 40
0.3103448275862069
 10
252.0842691864723
 20
239.5883749892829
 30
0.0
 10
255.6238066264145
 20
240.3083834599696
 30
0.0
 10
258.4675375610654
 20
241.9783190726649
 30
0.0
 10
260.6154619904187
 20
244.5800303532948
 30
0.0
  0
SPLINE
  5
182
330
23
100
AcDbEntity
  8
0
100
AcDbSpline
210
0.0
220
0.0
230
1.0
 70
     8
 71
     3
 72
    12
 73
     8
 74
     0
 42
0.0000000001
 43
0.0000000001
 40
0.3103448275862069
 40
0.3103448275862069
 40
0.3103448275862069
 40
0.3103448275862069
 40
0.3448275862068966
 40
0.3448275862068966
 40
0.3448275862068966
 40
0.3448275862068966
 40
0.3793103448275863
 40
0.3793103448275863
 40
0.3793103448275863
 40
0.3793103448275863
 10
260.6154619904187
 20
244.5800303532948
 30
0.0
 10
262.7633864197855
 20
247.2119940906829
 30
0.0
 10
263.8222224060942
 20
251.1750659251374
 30
0.0
 10
263.8222224060942
 20
256.505548804778
 30
0.0
 10
263.8222224060942
 20
256.505548804778
 30
0.0
 10
263.8222224060942
 20
257.6248897045808
 30
0.0
 10
263.7919699493437
 20
259.2282699124258
 30
0.0
 10
263.7314650358344
 20
261.3156894282712
 30
0.0
  0
SPLINE
  5
183
330
23
100
AcDbEntity
  8
0
100
AcDbSpline
210
0.0
220
0.0
230
1.0
 70
     8
 71
     3
 72
     8
 73
     4
 74
     0
 42
0.0000000001
 43
0.0000000001
 40
0.3793103448275863
 40
0.3793103448275863
 40
0.3793103448275863
 40
0.3793103448275863
 40
0.413793103448276
 40
0.413793103448276
 40
0.413793103448276
 40
0.413793103448276
 10
263.7314650358344
 20
261.3156894282712
 30
0.0
 10
263.6709601223401
 20
263.4333614008875
 30
0.0
 10
263.6407076655819
 20
265.0367416087184
 30
0.0
 10
263.6407076655819
 20
266.1258300517776
 30
0.0
  0
SPLINE
  5
184
330
23
100
AcDbEntity
  8
0
100
AcDbSpline
210
0.0
220
0.0
230
1.0
 70
    24
 71
     3
 72
     8
 73
     4
 74
     0
 42
0.0000000001
 43
0.0000000001
 40
0.413793103448276
 40
0.413793103448276
 40
0.413793103448276
 40
0.413793103448276
 40
0.4482758620689656
 40
0.4482758620689656
 40
0.4482758620689656
 40
0.4482758620689656
 10
263.6407076655819
 20
266.1258300517776
 30
0.0
 10
263.6407076655819
 20
266.1258300517776
 30
0.0
 10
275.4149638333038
 20
266.1258300517776
 30
0.0
 10
275.4149638333038
 20
266.1258300517776
 30
0.0
  0
SPLINE
  5
185
330
23
100
AcDbEntity
  8
0
100
AcDbSpline
210
0.0
220
0.0
230
1.0
 70
     8
 71
     3
 72
     8
 73
     4
 74
     0
 42
0.0000000001
 43
0.0000000001
 40
0.4482758620689656
 40
0.4482758620689656
 40
0.4482758620689656
 40
0.4482758620689656
 40
0.4827586206896554
 40
0.4827586206896554
 40
0.4827586206896554
 40
0.4827586206896554
 10
275.4149638333038
 20
266.1258300517776
 30
0.0
 10
275.4149638333038
 20
257.7458995315845
 30
0.0
 10
275.1124392657816
 20
251.3263282088848
 30
0.0
 10
274.4771376740059
 20
246.8187121529151
 30
0.0
  0
SPLINE
  5
186
330
23
100
AcDbEntity
  8
0
100
AcDbSpline
210
0.0
220
0.0
230
1.0
 70
     8
 71
     3
 72
     8
 73
     4
 74
     0
 42
0.0000000001
 43
0.0000000001
 40
0.4827586206896554
 40
0.4827586206896554
 40
0.4827586206896554
 40
0.4827586206896554
 40
0.5172413793103451
 40
0.5172413793103451
 40
0.5172413793103451
 40
0.5172413793103451
 10
274.4771376740059
 20
246.8187121529151
 30
0.0
 10
273.8720885389753
 20
242.3352980623132
 30
0.0
 10
272.4502230716494
 20
238.6444983386228
 30
0.0
 10
270.2417937287801
 20
235.7402624904708
 30
0.0
  0
SPLINE
  5
187
330
23
100
AcDbEntity
  8
0
100
AcDbSpline
210
0.0
220
0.0
230
1.0
 70
     8
 71
     3
 72
     8
 73
     4
 74
     0
 42
0.0000000001
 43
0.0000000001
 40
0.5172413793103451
 40
0.5172413793103451
 40
0.5172413793103451
 40
0.5172413793103451
 40
0.5517241379310346
 40
0.5517241379310346
 40
0.5517241379310346
 40
0.5517241379310346
 10
270.2417937287801
 20
235.7402624904708
 30
0.0
 10
267.9970614378112
 20
232.8057741855736
 30
0.0
 10
264.4877764546209
 20
230.688102212957
 30
0.0
 10
259.6473833743699
 20
229.2964892023887
 30
0.0
  0
SPLINE
  5
188
330
23
100
AcDbEntity
  8
0
100
AcDbSpline
210
0.0
220
0.0
230
1.0
 70
     8
 71
     3
 72
    12
 73
     8
 74
     0
 42
0.0000000001
 43
0.0000000001
 40
0.5517241379310346
 40
0.5517241379310346
 40
0.5517241379310346
 40
0.5517241379310346
 40
0.5862068965517242
 40
0.5862068965517242
 40
0.5862068965517242
 40
0.5862068965517242
 40
0.6206896551724138
 40
0.6206896551724138
 40
0.6206896551724138
 40
0.6206896551724138
 10
259.6473833743699
 20
229.2964892023887
 30
0.0
 10
254.8069902941202
 20
227.9290781572168
 30
0.0
 10
248.2059042309279
 20
227.2393221432741
 30
0.0
 10
239.7957212539782
 20
227.2393221432741
 30
0.0
 10
239.7957212539782
 20
227.2393221432741
 30
0.0
 10
233.3761499312927
 20
227.2393221432741
 30
0.0
 10
227.9912126295126
 20
227.505543762691
 30
0.0
 10
223.6348588572832
 20
228.0863909323258
 30
0.0
  0
SPLINE
  5
189
330
23
100
AcDbEntity
  8
0
100
AcDbSpline
210
0.0
220
0.0
230
1.0
 70
     8
 71
     3
 72
     8
 73
     4
 74
     0
 42
0.0000000001
 43
0.0000000001
 40
0.6206896551724138
 40
0.6206896551724138
 40
0.6206896551724138
 40
0.6206896551724138
 40
0.6551724137931034
 40
0.6551724137931034
 40
0.6551724137931034
 40
0.6551724137931034
 10
223.6348588572832
 20
228.0863909323258
 30
0.0
 10
219.2785050850466
 20
228.6309351538554
 30
0.0
 10
215.4001401294968
 20
229.8712858806622
 30
0.0
 10
212.0723698868182
 20
231.7469381992725
 30
0.0
  0
SPLINE
  5
18A
330
23
100
AcDbEntity
  8
0
100
AcDbSpline
210
0.0
220
0.0
230
1.0
 70
     8
 71
     3
 72
     8
 73
     4
 74
     0
 42
0.0000000001
 43
0.0000000001
 40
0.6551724137931034
 40
0.6551724137931034
 40
0.6551724137931034
 40
0.6551724137931034
 40
0.6896551724137929
 40
0.6896551724137929
 40
0.6896551724137929
 40
0.6896551724137929
 10
212.0723698868182
 20
231.7469381992725
 30
0.0
 10
208.7143471873874
 20
233.6225905178673
 30
0.0
 10
206.1126359067507
 20
236.4965739092625
 30
0.0
 10
204.2611855535642
 20
240.4293932869863
 30
0.0
  0
SPLINE
  5
18B
330
23
100
AcDbEntity
  8
0
100
AcDbSpline
210
0.0
220
0.0
230
1.0
 70
     8
 71
     3
 72
     8
 73
     4
 74
     0
 42
0.0000000001
 43
0.0000000001
 40
0.6896551724137929
 40
0.6896551724137929
 40
0.6896551724137929
 40
0.6896551724137929
 40
0.7241379310344827
 40
0.7241379310344827
 40
0.7241379310344827
 40
0.7241379310344827
 10
204.2611855535642
 20
240.4293932869863
 30
0.0
 10
202.4157856917122
 20
244.3380106992746
 30
0.0
 10
201.4779595324144
 20
249.5111808038047
 30
0.0
 10
201.4779595324144
 20
255.9307521264901
 30
0.0
  0
SPLINE
  5
18C
330
23
100
AcDbEntity
  8
0
100
AcDbSpline
210
0.0
220
0.0
230
1.0
 70
    24
 71
     3
 72
     8
 73
     4
 74
     0
 42
0.0000000001
 43
0.0000000001
 40
0.7241379310344827
 40
0.7241379310344827
 40
0.7241379310344827
 40
0.7241379310344827
 40
0.7586206896551723
 40
0.7586206896551723
 40
0.7586206896551723
 40
0.7586206896551723
 10
201.4779595324144
 20
255.9307521264901
 30
0.0
 10
201.4779595324144
 20
255.9307521264901
 30
0.0
 10
201.4779595324144
 20
261.9509910200465
 30
0.0
 10
201.4779595324144
 20
261.9509910200465
 30
0.0
  0
SPLINE
  5
18D
330
23
100
AcDbEntity
  8
0
100
AcDbSpline
210
0.0
220
0.0
230
1.0
 70
    24
 71
     3
 72
     8
 73
     4
 74
     0
 42
0.0000000001
 43
0.0000000001
 40
0.7586206896551723
 40
0.7586206896551723
 40
0.7586206896551723
 40
0.7586206896551723
 40
0.793103448275862
 40
0.793103448275862
 40
0.793103448275862
 40
0.793103448275862
 10
201.4779595324144
 20
261.9509910200465
 30
0.0
 10
201.4779595324144
 20
261.9509910200465
 30
0.0
 10
201.4779595324144
 20
303.1091155694161
 30
0.0
 10
201.4779595324144
 20
303.1091155694161
 30
0.0
  0
SPLINE
  5
18E
330
23
100
AcDbEntity
  8
0
100
AcDbSpline
210
0.0
220
0.0
230
1.0
 70
    24
 71
     3
 72
     8
 73
     4
 74
     0
 42
0.0000000001
 43
0.0000000001
 40
0.793103448275862
 40
0.793103448275862
 40
0.793103448275862
 40
0.793103448275862
 40
0.8275862068965514
 40
0.8275862068965514
 40
0.8275862068965514
 40
0.8275862068965514
 10
201.4779595324144
 20
303.1091155694161
 30
0.0
 10
201.4779595324144
 20
303.1091155694161
 30
0.0
 10
180.8094810797288
 20
303.1091155694161
 30
0.0
 10
180.8094810797288
 20
303.1091155694161
 30
0.0
  0
SPLINE
  5
18F
330
23
100
AcDbEntity
  8
0
100
AcDbSpline
210
0.0
220
0.0
230
1.0
 70
    24
 71
     3
 72
     8
 73
     4
 74
     0
 42
0.0000000001
 43
0.0000000001
 40
0.8275862068965514
 40
0.8275862068965514
 40
0.8275862068965514
 40
0.8275862068965514
 40
0.8620689655172411
 40
0.8620689655172411
 40
0.8620689655172411
 40
0.8620689655172411
 10
180.8094810797288
 20
303.1091155694161
 30
0.0
 10
180.8094810797288
 20
303.1091155694161
 30
0.0
 10
180.8094810797288
 20
313.9999999999933
 30
0.0
 10
180.8094810797288
 20
313.9999999999933
 30
0.0
  0
SPLINE
  5
190
330
23
100
AcDbEntity
  8
0
100
AcDbSpline
210
0.0
220
0.0
230
1.0
 70
    24
 71
     3
 72
     8
 73
     4
 74
     0
 42
0.0000000001
 43
0.0000000001
 40
0.8620689655172411
 40
0.8620689655172411
 40
0.8620689655172411
 40
0.8620689655172411
 40
0.8965517241379307
 40
0.8965517241379307
 40
0.8965517241379307
 40
0.8965517241379307
 10
180.8094810797288
 20
313.9999999999933
 30
0.0
 10
180.8094810797288
 20
313.9999999999933
 30
0.0
 10
201.4779595324144
 20
313.9999999999933
 30
0.0
 10
201.4779595324144
 20
313.9999999999933
 30
0.0
  0
SPLINE
  5
191
330
23
100
AcDbEntity
  8
0
100
AcDbSpline
210
0.0
220
0.0
230
1.0
 70
    24
 71
     3
 72
     8
 73
     4
 74
     0
 42
0.0000000001
 43
0.0000000001
 40
0.8965517241379307
 40
0.8965517241379307
 40
0.8965517241379307
 40
0.8965517241379307
 40
0.9310344827586204
 40
0.9310344827586204
 40
0.9310344827586204
 40
0.9310344827586204
 10
201.4779595324144
 20
313.9999999999933
 30
0.0
 10
201.4779595324144
 20
313.9999999999933
 30
0.0
 10
201.4779595324144
 20
333.1047692997998
 30
0.0
 10
201.4779595324144
 20
333.1047692997998
 30
0.0
  0
SPLINE
  5
192
330
23
100
AcDbEntity
  8
0
100
AcDbSpline
210
0.0
220
0.0
230
1.0
 70
    24
 71
     3
 72
     8
 73
     4
 74
     0
 42
0.0000000001
 43
0.0000000001
 40
0.9310344827586204
 40
0.9310344827586204
 40
0.9310344827586204
 40
0.9310344827586204
 40
0.9655172413793099
 40
0.9655172413793099
 40
0.9655172413793099
 40
0.9655172413793099
 10
201.4779595324144
 20
333.1047692997998
 30
0.0
 10
201.4779595324144
 20
333.1047692997998
 30
0.0
 10
214.1900418594273
 20
333.1047692997998
 30
0.0
 10
214.1900418594273
 20
333.1047692997998
 30
0.0
  0
SPLINE
  5
193
330
23
100
AcDbEntity
  8
0
100
AcDbSpline
210
0.0
220
0.0
230
1.0
 70
    24
 71
     3
 72
     8
 73
     4
 74
     0
 42
0.0000000001
 43
0.0000000001
 40
0.9655172413793099
 40
0.9655172413793099
 40
0.9655172413793099
 40
0.9655172413793099
 40
1.0
 40
1.0
 40
1.0
 40
1.0
 10
214.1900418594273
 20
333.1047692997998
 30
0.0
 10
214.1900418594273
 20
333.1047692997998
 30
0.0
 10
214.1900418594273
 20
313.9999999999933
 30
0.0
 10
214.1900418594273
 20
313.9999999999933
 30
0.0
  0
SPLINE
  5
195
330
23
100
AcDbEntity
  8
0
100
AcDbSpline
210
0.0
220
0.0
230
1.0
 70
    24
 71
     3
 72
     8
 73
     4
 74
     0
 42
0.0000000001
 43
0.0000000001
 40
0.0
 40
0.0
 40
0.0
 40
0.0
 40
0.037037037037037
 40
0.037037037037037
 40
0.037037037037037
 40
0.037037037037037
 10
422.9440319466053
 20
269.005863934534
 30
0.0
 10
422.9440319466053
 20
269.005863934534
 30
0.0
 10
326.886431268947
 20
269.005863934534
 30
0.0
 10
326.886431268947
 20
269.005863934534
 30
0.0
  0
SPLINE
  5
196
330
23
100
AcDbEntity
  8
0
100
AcDbSpline
210
0.0
220
0.0
230
1.0
 70
     8
 71
     3
 72
     8
 73
     4
 74
     0
 42
0.0000000001
 43
0.0000000001
 40
0.037037037037037
 40
0.037037037037037
 40
0.037037037037037
 40
0.037037037037037
 40
0.0740740740740741
 40
0.0740740740740741
 40
0.0740740740740741
 40
0.0740740740740741
 10
326.886431268947
 20
269.005863934534
 30
0.0
 10
327.0981984662171
 20
260.559378009492
 30
0.0
 10
328.3385491930303
 20
253.9885444030302
 30
0.0
 10
330.5772309926433
 20
249.3599185200425
 30
0.0
  0
SPLINE
  5
197
330
23
100
AcDbEntity
  8
0
100
AcDbSpline
210
0.0
220
0.0
230
1.0
 70
     8
 71
     3
 72
     8
 73
     4
 74
     0
 42
0.0000000001
 43
0.0000000001
 40
0.0740740740740741
 40
0.0740740740740741
 40
0.0740740740740741
 40
0.0740740740740741
 40
0.1111111111111111
 40
0.1111111111111111
 40
0.1111111111111111
 40
0.1111111111111111
 10
330.5772309926433
 20
249.3599185200425
 30
0.0
 10
332.8461652490141
 20
244.731292637042
 30
0.0
 10
337.5958009590186
 20
241.6455420483841
 30
0.0
 10
344.8926935275008
 20
240.1268687194639
 30
0.0
  0
SPLINE
  5
198
330
23
100
AcDbEntity
  8
0
100
AcDbSpline
210
0.0
220
0.0
230
1.0
 70
     8
 71
     3
 72
     8
 73
     4
 74
     0
 42
0.0000000001
 43
0.0000000001
 40
0.1111111111111111
 40
0.1111111111111111
 40
0.1111111111111111
 40
0.1111111111111111
 40
0.1481481481481481
 40
0.1481481481481481
 40
0.1481481481481481
 40
0.1481481481481481
 10
344.8926935275008
 20
240.1268687194639
 30
0.0
 10
350.0658636320245
 20
239.0377802764048
 30
0.0
 10
358.1795725327938
 20
238.4932360548752
 30
0.0
 10
369.1612143336302
 20
238.4932360548752
 30
0.0
  0
SPLINE
  5
199
330
23
100
AcDbEntity
  8
0
100
AcDbSpline
210
0.0
220
0.0
230
1.0
 70
    24
 71
     3
 72
     8
 73
     4
 74
     0
 42
0.0000000001
 43
0.0000000001
 40
0.1481481481481481
 40
0.1481481481481481
 40
0.1481481481481481
 40
0.1481481481481481
 40
0.1851851851851852
 40
0.1851851851851852
 40
0.1851851851851852
 40
0.1851851851851852
 10
369.1612143336302
 20
238.4932360548752
 30
0.0
 10
369.1612143336302
 20
238.4932360548752
 30
0.0
 10
376.0950774210951
 20
238.4932360548752
 30
0.0
 10
376.0950774210951
 20
238.4932360548752
 30
0.0
  0
SPLINE
  5
19A
330
23
100
AcDbEntity
  8
0
100
AcDbSpline
210
0.0
220
0.0
230
1.0
 70
     8
 71
     3
 72
     8
 73
     4
 74
     0
 42
0.0000000001
 43
0.0000000001
 40
0.1851851851851852
 40
0.1851851851851852
 40
0.1851851851851852
 40
0.1851851851851852
 40
0.2222222222222222
 40
0.2222222222222222
 40
0.2222222222222222
 40
0.2222222222222222
 10
376.0950774210951
 20
238.4932360548752
 30
0.0
 10
388.0205958725642
 20
238.4932360548752
 30
0.0
 10
396.3702739360056
 20
239.5278700757809
 30
0.0
 10
401.1259601373594
 20
241.6152895916408
 30
0.0
  0
SPLINE
  5
19B
330
23
100
AcDbEntity
  8
0
100
AcDbSpline
210
0.0
220
0.0
230
1.0
 70
     8
 71
     3
 72
     8
 73
     4
 74
     0
 42
0.0000000001
 43
0.0000000001
 40
0.2222222222222222
 40
0.2222222222222222
 40
0.2222222222222222
 40
0.2222222222222222
 40
0.2592592592592592
 40
0.2592592592592592
 40
0.2592592592592592
 40
0.2592592592592592
 10
401.1259601373594
 20
241.6152895916408
 30
0.0
 10
406.1176155013704
 20
243.8539713912466
 30
0.0
 10
408.9310939792713
 20
248.0288104229773
 30
0.0
 10
409.5058906575445
 20
254.145857178141
 30
0.0
  0
SPLINE
  5
19C
330
23
100
AcDbEntity
  8
0
100
AcDbSpline
210
0.0
220
0.0
230
1.0
 70
    24
 71
     3
 72
     8
 73
     4
 74
     0
 42
0.0000000001
 43
0.0000000001
 40
0.2592592592592592
 40
0.2592592592592592
 40
0.2592592592592592
 40
0.2592592592592592
 40
0.2962962962962963
 40
0.2962962962962963
 40
0.2962962962962963
 40
0.2962962962962963
 10
409.5058906575445
 20
254.145857178141
 30
0.0
 10
409.5058906575445
 20
254.145857178141
 30
0.0
 10
422.9440319466053
 20
254.145857178141
 30
0.0
 10
422.9440319466053
 20
254.145857178141
 30
0.0
  0
SPLINE
  5
19D
330
23
100
AcDbEntity
  8
0
100
AcDbSpline
210
0.0
220
0.0
230
1.0
 70
     8
 71
     3
 72
    12
 73
     8
 74
     0
 42
0.0000000001
 43
0.0000000001
 40
0.2962962962962963
 40
0.2962962962962963
 40
0.2962962962962963
 40
0.2962962962962963
 40
0.3333333333333333
 40
0.3333333333333333
 40
0.3333333333333333
 40
0.3333333333333333
 40
0.3703703703703704
 40
0.3703703703703704
 40
0.3703703703703704
 40
0.3703703703703704
 10
422.9440319466053
 20
254.145857178141
 30
0.0
 10
422.9137794898479
 20
246.2136630178835
 30
0.0
 10
420.4572800016226
 20
240.2781310032111
 30
0.0
 10
415.5563820078645
 20
236.3150591687569
 30
0.0
 10
415.5563820078645
 20
236.3150591687569
 30
0.0
 10
410.655484014112
 20
232.3519873343035
 30
0.0
 10
404.847012317799
 20
229.8712858806617
 30
0.0
 10
398.0644115140963
 20
228.8124498943604
 30
0.0
  0
SPLINE
  5
19E
330
23
100
AcDbEntity
  8
0
100
AcDbSpline
210
0.0
220
0.0
230
1.0
 70
     8
 71
     3
 72
    12
 73
     8
 74
     0
 42
0.0000000001
 43
0.0000000001
 40
0.3703703703703704
 40
0.3703703703703704
 40
0.3703703703703704
 40
0.3703703703703704
 40
0.4074074074074074
 40
0.4074074074074074
 40
0.4074074074074074
 40
0.4074074074074074
 40
0.4444444444444445
 40
0.4444444444444445
 40
0.4444444444444445
 40
0.4444444444444445
 10
398.0644115140963
 20
228.8124498943604
 30
0.0
 10
391.2576087449911
 20
227.7475634167109
 30
0.0
 10
383.4161719549724
 20
227.2393221432736
 30
0.0
 10
374.4614447565064
 20
227.2393221432736
 30
0.0
 10
374.4614447565064
 20
227.2393221432736
 30
0.0
 10
363.1107229833038
 20
227.2393221432736
 30
0.0
 10
354.2407026637488
 20
227.5357962194618
 30
0.0
 10
347.8271818323979
 20
228.1468958458278
 30
0.0
  0
SPLINE
  5
19F
330
23
100
AcDbEntity
  8
0
100
AcDbSpline
210
0.0
220
0.0
230
1.0
 70
     8
 71
     3
 72
     8
 73
     4
 74
     0
 42
0.0000000001
 43
0.0000000001
 40
0.4444444444444445
 40
0.4444444444444445
 40
0.4444444444444445
 40
0.4444444444444445
 40
0.4814814814814815
 40
0.4814814814814815
 40
0.4814814814814815
 40
0.4814814814814815
 10
347.8271818323979
 20
228.1468958458278
 30
0.0
 10
341.4439134578179
 20
228.7519449808589
 30
0.0
 10
335.6596437269077
 20
230.3855776454476
 30
0.0
 10
330.4562211656466
 20
233.0175413828225
 30
0.0
  0
SPLINE
  5
1A0
330
23
100
AcDbEntity
  8
0
100
AcDbSpline
210
0.0
220
0.0
230
1.0
 70
     8
 71
     3
 72
     8
 73
     4
 74
     0
 42
0.0000000001
 43
0.0000000001
 40
0.4814814814814815
 40
0.4814814814814815
 40
0.4814814814814815
 40
0.4814814814814815
 40
0.5185185185185186
 40
0.5185185185185186
 40
0.5185185185185186
 40
0.5185185185185186
 10
330.4562211656466
 20
233.0175413828225
 30
0.0
 10
325.2830510611229
 20
235.6495051202252
 30
0.0
 10
321.2534238218041
 20
240.0058588924472
 30
0.0
 10
318.4399453439041
 20
246.0926531908668
 30
0.0
  0
SPLINE
  5
1A1
330
23
100
AcDbEntity
  8
0
100
AcDbSpline
210
0.0
220
0.0
230
1.0
 70
     8
 71
     3
 72
    12
 73
     8
 74
     0
 42
0.0000000001
 43
0.0000000001
 40
0.5185185185185186
 40
0.5185185185185186
 40
0.5185185185185186
 40
0.5185185185185186
 40
0.5555555555555556
 40
0.5555555555555556
 40
0.5555555555555556
 40
0.5555555555555556
 40
0.5925925925925926
 40
0.5925925925925926
 40
0.5925925925925926
 40
0.5925925925925926
 10
318.4399453439041
 20
246.0926531908668
 30
0.0
 10
315.5962144092527
 20
252.1733969979506
 30
0.0
 10
314.1743489419341
 20
260.4686206392322
 30
0.0
 10
314.1743489419341
 20
270.9722736233904
 30
0.0
 10
314.1743489419341
 20
270.9722736233904
 30
0.0
 10
314.1743489419341
 20
280.0480106488591
 30
0.0
 10
314.9911652742221
 20
287.4356605876006
 30
0.0
 10
316.6247979388099
 20
293.1533749136466
 30
0.0
  0
SPLINE
  5
1A2
330
23
100
AcDbEntity
  8
0
100
AcDbSpline
210
0.0
220
0.0
230
1.0
 70
     8
 71
     3
 72
     8
 73
     4
 74
     0
 42
0.0000000001
 43
0.0000000001
 40
0.5925925925925926
 40
0.5925925925925926
 40
0.5925925925925926
 40
0.5925925925925926
 40
0.6296296296296296
 40
0.6296296296296296
 40
0.6296296296296296
 40
0.6296296296296296
 10
316.6247979388099
 20
293.1533749136466
 30
0.0
 10
318.2584306033991
 20
298.8408367829358
 30
0.0
 10
320.8903943407872
 20
303.2939984167803
 30
0.0
 10
324.490436694231
 20
306.5310112891999
 30
0.0
  0
SPLINE
  5
1A3
330
23
100
AcDbEntity
  8
0
100
AcDbSpline
210
0.0
220
0.0
230
1.0
 70
     8
 71
     3
 72
     8
 73
     4
 74
     0
 42
0.0000000001
 43
0.0000000001
 40
0.6296296296296296
 40
0.6296296296296296
 40
0.6296296296296296
 40
0.6296296296296296
 40
0.6666666666666666
 40
0.6666666666666666
 40
0.6666666666666666
 40
0.6666666666666666
 10
324.490436694231
 20
306.5310112891999
 30
0.0
 10
328.0965295390165
 20
309.7377717048609
 30
0.0
 10
332.8159127922563
 20
312.0067059612394
 30
0.0
 10
338.6304349799252
 20
313.3378140583187
 30
0.0
  0
SPLINE
  5
1A4
330
23
100
AcDbEntity
  8
0
100
AcDbSpline
210
0.0
220
0.0
230
1.0
 70
     8
 71
     3
 72
    12
 73
     8
 74
     0
 42
0.0000000001
 43
0.0000000001
 40
0.6666666666666666
 40
0.6666666666666666
 40
0.6666666666666666
 40
0.6666666666666666
 40
0.7037037037037035
 40
0.7037037037037035
 40
0.7037037037037035
 40
0.7037037037037035
 40
0.7407407407407405
 40
0.7407407407407405
 40
0.7407407407407405
 40
0.7407407407407405
 10
338.6304349799252
 20
313.3378140583187
 30
0.0
 10
344.4691591329747
 20
314.6447201899901
 30
0.0
 10
351.8507585803677
 20
315.3042237471733
 30
0.0
 10
360.8417887269397
 20
315.3042237471733
 30
0.0
 10
360.8417887269397
 20
315.3042237471733
 30
0.0
 10
361.9308771699989
 20
315.3042237471733
 30
0.0
 10
363.4435000075778
 20
315.2739712904155
 30
0.0
 10
365.3494047829235
 20
315.2134663769135
 30
0.0
  0
SPLINE
  5
1A5
330
23
100
AcDbEntity
  8
0
100
AcDbSpline
210
0.0
220
0.0
230
1.0
 70
     8
 71
     3
 72
     8
 73
     4
 74
     0
 42
0.0000000001
 43
0.0000000001
 40
0.7407407407407405
 40
0.7407407407407405
 40
0.7407407407407405
 40
0.7407407407407405
 40
0.7777777777777775
 40
0.7777777777777775
 40
0.7777777777777775
 40
0.7777777777777775
 10
365.3494047829235
 20
315.2134663769135
 30
0.0
 10
367.2855620150276
 20
315.1529614633988
 30
0.0
 10
368.6771750256025
 20
315.1287594980037
 30
0.0
 10
369.590799219498
 20
315.1287594980037
 30
0.0
  0
SPLINE
  5
1A6
330
23
100
AcDbEntity
  8
0
100
AcDbSpline
210
0.0
220
0.0
230
1.0
 70
     8
 71
     3
 72
     8
 73
     4
 74
     0
 42
0.0000000001
 43
0.0000000001
 40
0.7777777777777775
 40
0.7777777777777775
 40
0.7777777777777775
 40
0.7777777777777775
 40
0.8148148148148145
 40
0.8148148148148145
 40
0.8148148148148145
 40
0.8148148148148145
 10
369.590799219498
 20
315.1287594980037
 30
0.0
 10
380.5724410203211
 20
314.6447201899901
 30
0.0
 10
388.8616141702605
 20
314.0638730203396
 30
0.0
 10
394.4341167039084
 20
313.3378140583187
 30
0.0
  0
SPLINE
  5
1A7
330
23
100
AcDbEntity
  8
0
100
AcDbSpline
210
0.0
220
0.0
230
1.0
 70
     8
 71
     3
 72
     8
 73
     4
 74
     0
 42
0.0000000001
 43
0.0000000001
 40
0.8148148148148145
 40
0.8148148148148145
 40
0.8148148148148145
 40
0.8148148148148145
 40
0.8518518518518513
 40
0.8518518518518513
 40
0.8518518518518513
 40
0.8518518518518513
 10
394.4341167039084
 20
313.3378140583187
 30
0.0
 10
400.0308212029513
 20
312.6117550962705
 30
0.0
 10
405.0285270583185
 20
310.9781224316817
 30
0.0
 10
409.4453857440498
 20
308.4671685213108
 30
0.0
  0
SPLINE
  5
1A8
330
23
100
AcDbEntity
  8
0
100
AcDbSpline
210
0.0
220
0.0
230
1.0
 70
     8
 71
     3
 72
     8
 73
     4
 74
     0
 42
0.0000000001
 43
0.0000000001
 40
0.8518518518518513
 40
0.8518518518518513
 40
0.8518518518518513
 40
0.8518518518518513
 40
0.8888888888888883
 40
0.8888888888888883
 40
0.8888888888888883
 40
0.8888888888888883
 10
409.4453857440498
 20
308.4671685213108
 30
0.0
 10
413.8622444297802
 20
305.9259621541811
 30
0.0
 10
417.2505195859543
 20
301.9023854062122
 30
0.0
 10
419.5860092471762
 20
296.3601353293221
 30
0.0
  0
SPLINE
  5
1A9
330
23
100
AcDbEntity
  8
0
100
AcDbSpline
210
0.0
220
0.0
230
1.0
 70
     8
 71
     3
 72
    12
 73
     8
 74
     0
 42
0.0000000001
 43
0.0000000001
 40
0.8888888888888883
 40
0.8888888888888883
 40
0.8888888888888883
 40
0.8888888888888883
 40
0.9259259259259254
 40
0.9259259259259254
 40
0.9259259259259254
 40
0.9259259259259254
 40
0.9629629629629622
 40
0.9629629629629622
 40
0.9629629629629622
 40
0.9629629629629622
 10
419.5860092471762
 20
296.3601353293221
 30
0.0
 10
421.9457008738063
 20
290.8239357437675
 30
0.0
 10
423.1255466871179
 20
283.1640136942748
 30
0.0
 10
423.1255466871179
 20
273.3864196721516
 30
0.0
 10
423.1255466871179
 20
273.3864196721516
 30
0.0
 10
423.1255466871179
 20
272.878178398743
 30
0.0
 10
423.095294230367
 20
272.1521194366947
 30
0.0
 10
423.0347893168654
 20
271.1840408206523
 30
0.0
  0
SPLINE
  5
1AA
330
23
100
AcDbEntity
  8
0
100
AcDbSpline
210
0.0
220
0.0
230
1.0
 70
     8
 71
     3
 72
     8
 73
     4
 74
     0
 42
0.0000000001
 43
0.0000000001
 40
0.9629629629629622
 40
0.9629629629629622
 40
0.9629629629629622
 40
0.9629629629629622
 40
1.0
 40
1.0
 40
1.0
 40
1.0
 10
423.0347893168654
 20
271.1840408206523
 30
0.0
 10
422.9742844033562
 20
270.2099117132481
 30
0.0
 10
422.9440319466053
 20
269.4838527512003
 30
0.0
 10
422.9440319466053
 20
269.005863934534
 30
0.0
  0
SPLINE
  5
1AB
330
23
100
AcDbEntity
  8
0
100
AcDbSpline
210
0.0
220
0.0
230
1.0
 70
     8
 71
     3
 72
     8
 73
     4
 74
     0
 42
0.0000000001
 43
0.0000000001
 40
0.0
 40
0.0
 40
0.0
 40
0.0
 40
0.1
 40
0.1
 40
0.1
 40
0.1
 10
409.8689201385687
 20
279.8967483650983
 30
0.0
 10
409.7479103115583
 20
283.9808300265691
 30
0.0
 10
409.324375917039
 20
287.4054081308429
 30
0.0
 10
408.6285694117554
 20
290.1886341519927
 30
0.0
  0
SPLINE
  5
1AC
330
23
100
AcDbEntity
  8
0
100
AcDbSpline
210
0.0
220
0.0
230
1.0
 70
     8
 71
     3
 72
     8
 73
     4
 74
     0
 42
0.0000000001
 43
0.0000000001
 40
0.1
 40
0.1
 40
0.1
 40
0.1
 40
0.2
 40
0.2
 40
0.2
 40
0.2
 10
408.6285694117554
 20
290.1886341519927
 30
0.0
 10
407.9630153632156
 20
292.9416077163843
 30
0.0
 10
406.4806449823882
 20
295.331551799765
 30
0.0
 10
404.2419631827751
 20
297.2979614886195
 30
0.0
  0
SPLINE
  5
1AD
330
23
100
AcDbEntity
  8
0
100
AcDbSpline
210
0.0
220
0.0
230
1.0
 70
     8
 71
     3
 72
     8
 73
     4
 74
     0
 42
0.0000000001
 43
0.0000000001
 40
0.2
 40
0.2
 40
0.2
 40
0.2
 40
0.3
 40
0.3
 40
0.3
 40
0.3
 10
404.2419631827751
 20
297.2979614886195
 30
0.0
 10
401.4526866702767
 20
299.9662281741154
 30
0.0
 10
397.4896148358157
 20
301.7208706656935
 30
0.0
 10
392.3769496448003
 20
302.5981919114889
 30
0.0
  0
SPLINE
  5
1AE
330
23
100
AcDbEntity
  8
0
100
AcDbSpline
210
0.0
220
0.0
230
1.0
 70
     8
 71
     3
 72
     8
 73
     4
 74
     0
 42
0.0000000001
 43
0.0000000001
 40
0.3
 40
0.3
 40
0.3
 40
0.3
 40
0.4
 40
0.4
 40
0.4
 40
0.4
 10
392.3769496448003
 20
302.5981919114889
 30
0.0
 10
387.2582339624301
 20
303.4452607005411
 30
0.0
 10
381.389257352615
 20
303.8687950950667
 30
0.0
 10
374.7942217807727
 20
303.8687950950667
 30
0.0
  0
SPLINE
  5
1AF
330
23
100
AcDbEntity
  8
0
100
AcDbSpline
210
0.0
220
0.0
230
1.0
 70
    24
 71
     3
 72
     8
 73
     4
 74
     0
 42
0.0000000001
 43
0.0000000001
 40
0.4
 40
0.4
 40
0.4
 40
0.4
 40
0.5
 40
0.5
 40
0.5
 40
0.5
 10
374.7942217807727
 20
303.8687950950667
 30
0.0
 10
374.7942217807727
 20
303.8687950950667
 30
0.0
 10
364.8351130181449
 20
303.8687950950667
 30
0.0
 10
364.8351130181449
 20
303.8687950950667
 30
0.0
  0
SPLINE
  5
1B0
330
23
100
AcDbEntity
  8
0
100
AcDbSpline
210
0.0
220
0.0
230
1.0
 70
     8
 71
     3
 72
     8
 73
     4
 74
     0
 42
0.0000000001
 43
0.0000000001
 40
0.5
 40
0.5
 40
0.5
 40
0.5
 40
0.6
 40
0.6
 40
0.6
 40
0.6
 10
364.8351130181449
 20
303.8687950950667
 30
0.0
 10
357.6894827334176
 20
303.8687950950667
 30
0.0
 10
351.4272241858416
 20
303.4755131572989
 30
0.0
 10
346.0422868840615
 20
302.6526463336428
 30
0.0
  0
SPLINE
  5
1B1
330
23
100
AcDbEntity
  8
0
100
AcDbSpline
210
0.0
220
0.0
230
1.0
 70
     8
 71
     3
 72
     8
 73
     4
 74
     0
 42
0.0000000001
 43
0.0000000001
 40
0.6
 40
0.6
 40
0.6
 40
0.6
 40
0.7
 40
0.7
 40
0.7
 40
0.7
 10
346.0422868840615
 20
302.6526463336428
 30
0.0
 10
340.6270971255244
 20
301.8721329494543
 30
0.0
 10
336.3554502321981
 20
300.1477429146067
 30
0.0
 10
333.2091947300382
 20
297.4794762291391
 30
0.0
  0
SPLINE
  5
1B2
330
23
100
AcDbEntity
  8
0
100
AcDbSpline
210
0.0
220
0.0
230
1.0
 70
     8
 71
     3
 72
     8
 73
     4
 74
     0
 42
0.0000000001
 43
0.0000000001
 40
0.7
 40
0.7
 40
0.7
 40
0.7
 40
0.8
 40
0.8
 40
0.8
 40
0.8
 10
333.2091947300382
 20
297.4794762291391
 30
0.0
 10
330.9402604736679
 20
295.5433189970287
 30
0.0
 10
329.4276376360894
 20
293.1533749136466
 30
0.0
 10
328.7015786740412
 20
290.3398964357399
 30
0.0
  0
SPLINE
  5
1B3
330
23
100
AcDbEntity
  8
0
100
AcDbSpline
210
0.0
220
0.0
230
1.0
 70
     8
 71
     3
 72
     8
 73
     4
 74
     0
 42
0.0000000001
 43
0.0000000001
 40
0.8
 40
0.8
 40
0.8
 40
0.8
 40
0.9
 40
0.9
 40
0.9
 40
0.9
 10
328.7015786740412
 20
290.3398964357399
 30
0.0
 10
327.9755197120062
 20
287.5264179578468
 30
0.0
 10
327.4914804039859
 20
284.0413349400843
 30
0.0
 10
327.2494607499711
 20
279.8967483650983
 30
0.0
  0
SPLINE
  5
1B4
330
23
100
AcDbEntity
  8
0
100
AcDbSpline
210
0.0
220
0.0
230
1.0
 70
    24
 71
     3
 72
     8
 73
     4
 74
     0
 42
0.0000000001
 43
0.0000000001
 40
0.9
 40
0.9
 40
0.9
 40
0.9
 40
1.0
 40
1.0
 40
1.0
 40
1.0
 10
327.2494607499711
 20
279.8967483650983
 30
0.0
 10
327.2494607499711
 20
279.8967483650983
 30
0.0
 10
409.8689201385687
 20
279.8967483650983
 30
0.0
 10
409.8689201385687
 20
279.8967483650983
 30
0.0
  0
SPLINE
  5
1B6
330
23
100
AcDbEntity
  8
0
100
AcDbSpline
210
0.0
220
0.0
230
1.0
 70
    24
 71
     3
 72
     8
 73
     4
 74
     0
 42
0.0000000001
 43
0.0000000001
 40
0.0
 40
0.0
 40
0.0
 40
0.0
 40
0.25
 40
0.25
 40
0.25
 40
0.25
 10
472.1964090333976
 20
350.7480020773295
 30
0.0
 10
472.1964090333976
 20
350.7480020773295
 30
0.0
 10
484.9084913604106
 20
350.7480020773295
 30
0.0
 10
484.9084913604106
 20
350.7480020773295
 30
0.0
  0
SPLINE
  5
1B7
330
23
100
AcDbEntity
  8
0
100
AcDbSpline
210
0.0
220
0.0
230
1.0
 70
    24
 71
     3
 72
     8
 73
     4
 74
     0
 42
0.0000000001
 43
0.0000000001
 40
0.25
 40
0.25
 40
0.25
 40
0.25
 40
0.5
 40
0.5
 40
0.5
 40
0.5
 10
484.9084913604106
 20
350.7480020773295
 30
0.0
 10
484.9084913604106
 20
350.7480020773295
 30
0.0
 10
484.908491360411
 20
227.9999999999933
 30
0.0
 10
484.908491360411
 20
227.9999999999933
 30
0.0
  0
SPLINE
  5
1B8
330
23
100
AcDbEntity
  8
0
100
AcDbSpline
210
0.0
220
0.0
230
1.0
 70
    24
 71
     3
 72
     8
 73
     4
 74
     0
 42
0.0000000001
 43
0.0000000001
 40
0.5
 40
0.5
 40
0.5
 40
0.5
 40
0.75
 40
0.75
 40
0.75
 40
0.75
 10
484.908491360411
 20
227.9999999999933
 30
0.0
 10
484.908491360411
 20
227.9999999999933
 30
0.0
 10
472.1964090333976
 20
227.9999999999933
 30
0.0
 10
472.1964090333976
 20
227.9999999999933
 30
0.0
  0
SPLINE
  5
1B9
330
23
100
AcDbEntity
  8
0
100
AcDbSpline
210
0.0
220
0.0
230
1.0
 70
    24
 71
     3
 72
     8
 73
     4
 74
     0
 42
0.0000000001
 43
0.0000000001
 40
0.75
 40
0.75
 40
0.75
 40
0.75
 40
1.0
 40
1.0
 40
1.0
 40
1.0
 10
472.1964090333976
 20
227.9999999999933
 30
0.0
 10
472.1964090333976
 20
227.9999999999933
 30
0.0
 10
472.1964090333976
 20
350.7480020773295
 30
0.0
 10
472.1964090333976
 20
350.7480020773295
 30
0.0
  0
SPLINE
  5
1BB
330
23
100
AcDbEntity
  8
0
100
AcDbSpline
210
0.0
220
0.0
230
1.0
 70
    24
 71
     3
 72
     8
 73
     4
 74
     0
 42
0.0000000001
 43
0.0000000001
 40
0.0
 40
0.0
 40
0.0
 40
0.0
 40
0.25
 40
0.25
 40
0.25
 40
0.25
 10
537.1995502468162
 20
313.9999999999933
 30
0.0
 10
537.1995502468162
 20
313.9999999999933
 30
0.0
 10
549.9116325738423
 20
313.9999999999933
 30
0.0
 10
549.9116325738423
 20
313.9999999999933
 30
0.0
  0
SPLINE
  5
1BC
330
23
100
AcDbEntity
  8
0
100
AcDbSpline
210
0.0
220
0.0
230
1.0
 70
    24
 71
     3
 72
     8
 73
     4
 74
     0
 42
0.0000000001
 43
0.0000000001
 40
0.25
 40
0.25
 40
0.25
 40
0.25
 40
0.5
 40
0.5
 40
0.5
 40
0.5
 10
549.9116325738423
 20
313.9999999999933
 30
0.0
 10
549.9116325738423
 20
313.9999999999933
 30
0.0
 10
549.9116325738423
 20
227.9999999999933
 30
0.0
 10
549.9116325738423
 20
227.9999999999933
 30
0.0
  0
SPLINE
  5
1BD
330
23
100
AcDbEntity
  8
0
100
AcDbSpline
210
0.0
220
0.0
230
1.0
 70
    24
 71
     3
 72
     8
 73
     4
 74
     0
 42
0.0000000001
 43
0.0000000001
 40
0.5
 40
0.5
 40
0.5
 40
0.5
 40
0.75
 40
0.75
 40
0.75
 40
0.75
 10
549.9116325738423
 20
227.9999999999933
 30
0.0
 10
549.9116325738423
 20
227.9999999999933
 30
0.0
 10
537.1995502468157
 20
227.9999999999933
 30
0.0
 10
537.1995502468157
 20
227.9999999999933
 30
0.0
  0
SPLINE
  5
1BE
330
23
100
AcDbEntity
  8
0
100
AcDbSpline
210
0.0
220
0.0
230
1.0
 70
    24
 71
     3
 72
     8
 73
     4
 74
     0
 42
0.0000000001
 43
0.0000000001
 40
0.75
 40
0.75
 40
0.75
 40
0.75
 40
1.0
 40
1.0
 40
1.0
 40
1.0
 10
537.1995502468157
 20
227.9999999999933
 30
0.0
 10
537.1995502468157
 20
227.9999999999933
 30
0.0
 10
537.1995502468162
 20
313.9999999999933
 30
0.0
 10
537.1995502468162
 20
313.9999999999933
 30
0.0
  0
SPLINE
  5
1BF
330
23
100
AcDbEntity
  8
0
100
AcDbSpline
210
0.0
220
0.0
230
1.0
 70
    24
 71
     3
 72
     8
 73
     4
 74
     0
 42
0.0000000001
 43
0.0000000001
 40
0.0
 40
0.0
 40
0.0
 40
0.0
 40
0.25
 40
0.25
 40
0.25
 40
0.25
 10
537.1995502468162
 20
350.7480020773295
 30
0.0
 10
537.1995502468162
 20
350.7480020773295
 30
0.0
 10
549.9116325738423
 20
350.7480020773295
 30
0.0
 10
549.9116325738423
 20
350.7480020773295
 30
0.0
  0
SPLINE
  5
1C0
330
23
100
AcDbEntity
  8
0
100
AcDbSpline
210
0.0
220
0.0
230
1.0
 70
    24
 71
     3
 72
     8
 73
     4
 74
     0
 42
0.0000000001
 43
0.0000000001
 40
0.25
 40
0.25
 40
0.25
 40
0.25
 40
0.5
 40
0.5
 40
0.5
 40
0.5
 10
549.9116325738423
 20
350.7480020773295
 30
0.0
 10
549.9116325738423
 20
350.7480020773295
 30
0.0
 10
549.9116325738423
 20
334.7989068778901
 30
0.0
 10
549.9116325738423
 20
334.7989068778901
 30
0.0
  0
SPLINE
  5
1C1
330
23
100
AcDbEntity
  8
0
100
AcDbSpline
210
0.0
220
0.0
230
1.0
 70
    24
 71
     3
 72
     8
 73
     4
 74
     0
 42
0.0000000001
 43
0.0000000001
 40
0.5
 40
0.5
 40
0.5
 40
0.5
 40
0.75
 40
0.75
 40
0.75
 40
0.75
 10
549.9116325738423
 20
334.7989068778901
 30
0.0
 10
549.9116325738423
 20
334.7989068778901
 30
0.0
 10
537.1995502468162
 20
334.7989068778901
 30
0.0
 10
537.1995502468162
 20
334.7989068778901
 30
0.0
  0
SPLINE
  5
1C2
330
23
100
AcDbEntity
  8
0
100
AcDbSpline
210
0.0
220
0.0
230
1.0
 70
    24
 71
     3
 72
     8
 73
     4
 74
     0
 42
0.0000000001
 43
0.0000000001
 40
0.75
 40
0.75
 40
0.75
 40
0.75
 40
1.0
 40
1.0
 40
1.0
 40
1.0
 10
537.1995502468162
 20
334.7989068778901
 30
0.0
 10
537.1995502468162
 20
334.7989068778901
 30
0.0
 10
537.1995502468162
 20
350.7480020773295
 30
0.0
 10
537.1995502468162
 20
350.7480020773295
 30
0.0
  0
SPLINE
  5
1C4
330
23
100
AcDbEntity
  8
0
100
AcDbSpline
210
0.0
220
0.0
230
1.0
 70
    24
 71
     3
 72
     8
 73
     4
 74
     0
 42
0.0000000001
 43
0.0000000001
 40
0.0
 40
0.0
 40
0.0
 40
0.0
 40
0.037037037037037
 40
0.037037037037037
 40
0.037037037037037
 40
0.037037037037037
 10
708.4614205545417
 20
269.0058639345342
 30
0.0
 10
708.4614205545417
 20
269.0058639345342
 30
0.0
 10
612.4038198768821
 20
269.0058639345342
 30
0.0
 10
612.4038198768821
 20
269.0058639345342
 30
0.0
  0
SPLINE
  5
1C5
330
23
100
AcDbEntity
  8
0
100
AcDbSpline
210
0.0
220
0.0
230
1.0
 70
     8
 71
     3
 72
     8
 73
     4
 74
     0
 42
0.0000000001
 43
0.0000000001
 40
0.037037037037037
 40
0.037037037037037
 40
0.037037037037037
 40
0.037037037037037
 40
0.0740740740740741
 40
0.0740740740740741
 40
0.0740740740740741
 40
0.0740740740740741
 10
612.4038198768821
 20
269.0058639345342
 30
0.0
 10
612.615587074146
 20
260.5593780094922
 30
0.0
 10
613.8559378009663
 20
253.9885444030304
 30
0.0
 10
616.0946196005791
 20
249.3599185200427
 30
0.0
  0
SPLINE
  5
1C6
330
23
100
AcDbEntity
  8
0
100
AcDbSpline
210
0.0
220
0.0
230
1.0
 70
     8
 71
     3
 72
     8
 73
     4
 74
     0
 42
0.0000000001
 43
0.0000000001
 40
0.0740740740740741
 40
0.0740740740740741
 40
0.0740740740740741
 40
0.0740740740740741
 40
0.1111111111111111
 40
0.1111111111111111
 40
0.1111111111111111
 40
0.1111111111111111
 10
616.0946196005791
 20
249.3599185200427
 30
0.0
 10
618.3635538569497
 20
244.7312926370422
 30
0.0
 10
623.1131895669477
 20
241.6455420483843
 30
0.0
 10
630.4100821354291
 20
240.1268687194639
 30
0.0
  0
SPLINE
  5
1C7
330
23
100
AcDbEntity
  8
0
100
AcDbSpline
210
0.0
220
0.0
230
1.0
 70
     8
 71
     3
 72
     8
 73
     4
 74
     0
 42
0.0000000001
 43
0.0000000001
 40
0.1111111111111111
 40
0.1111111111111111
 40
0.1111111111111111
 40
0.1111111111111111
 40
0.1481481481481481
 40
0.1481481481481481
 40
0.1481481481481481
 40
0.1481481481481481
 10
630.4100821354291
 20
240.1268687194639
 30
0.0
 10
635.583252239953
 20
239.0377802764048
 30
0.0
 10
643.6969611407296
 20
238.4932360548752
 30
0.0
 10
654.6786029415661
 20
238.4932360548752
 30
0.0
  0
SPLINE
  5
1C8
330
23
100
AcDbEntity
  8
0
100
AcDbSpline
210
0.0
220
0.0
230
1.0
 70
    24
 71
     3
 72
     8
 73
     4
 74
     0
 42
0.0000000001
 43
0.0000000001
 40
0.1481481481481481
 40
0.1481481481481481
 40
0.1481481481481481
 40
0.1481481481481481
 40
0.1851851851851852
 40
0.1851851851851852
 40
0.1851851851851852
 40
0.1851851851851852
 10
654.6786029415661
 20
238.4932360548752
 30
0.0
 10
654.6786029415661
 20
238.4932360548752
 30
0.0
 10
661.6124660290238
 20
238.4932360548752
 30
0.0
 10
661.6124660290238
 20
238.4932360548752
 30
0.0
  0
SPLINE
  5
1C9
330
23
100
AcDbEntity
  8
0
100
AcDbSpline
210
0.0
220
0.0
230
1.0
 70
     8
 71
     3
 72
     8
 73
     4
 74
     0
 42
0.0000000001
 43
0.0000000001
 40
0.1851851851851852
 40
0.1851851851851852
 40
0.1851851851851852
 40
0.1851851851851852
 40
0.2222222222222222
 40
0.2222222222222222
 40
0.2222222222222222
 40
0.2222222222222222
 10
661.6124660290238
 20
238.4932360548752
 30
0.0
 10
673.5379844804997
 20
238.4932360548752
 30
0.0
 10
681.8876625439411
 20
239.5278700757809
 30
0.0
 10
686.6433487452946
 20
241.6152895916406
 30
0.0
  0
SPLINE
  5
1CA
330
23
100
AcDbEntity
  8
0
100
AcDbSpline
210
0.0
220
0.0
230
1.0
 70
     8
 71
     3
 72
     8
 73
     4
 74
     0
 42
0.0000000001
 43
0.0000000001
 40
0.2222222222222222
 40
0.2222222222222222
 40
0.2222222222222222
 40
0.2222222222222222
 40
0.2592592592592592
 40
0.2592592592592592
 40
0.2592592592592592
 40
0.2592592592592592
 10
686.6433487452946
 20
241.6152895916406
 30
0.0
 10
691.6350041092994
 20
243.8539713912466
 30
0.0
 10
694.4484825871994
 20
248.0288104229775
 30
0.0
 10
695.0232792654801
 20
254.1458571781408
 30
0.0
  0
SPLINE
  5
1CB
330
23
100
AcDbEntity
  8
0
100
AcDbSpline
210
0.0
220
0.0
230
1.0
 70
    24
 71
     3
 72
     8
 73
     4
 74
     0
 42
0.0000000001
 43
0.0000000001
 40
0.2592592592592592
 40
0.2592592592592592
 40
0.2592592592592592
 40
0.2592592592592592
 40
0.2962962962962963
 40
0.2962962962962963
 40
0.2962962962962963
 40
0.2962962962962963
 10
695.0232792654801
 20
254.1458571781408
 30
0.0
 10
695.0232792654801
 20
254.1458571781408
 30
0.0
 10
708.4614205545417
 20
254.1458571781408
 30
0.0
 10
708.4614205545417
 20
254.1458571781408
 30
0.0
  0
SPLINE
  5
1CC
330
23
100
AcDbEntity
  8
0
100
AcDbSpline
210
0.0
220
0.0
230
1.0
 70
     8
 71
     3
 72
    12
 73
     8
 74
     0
 42
0.0000000001
 43
0.0000000001
 40
0.2962962962962963
 40
0.2962962962962963
 40
0.2962962962962963
 40
0.2962962962962963
 40
0.3333333333333333
 40
0.3333333333333333
 40
0.3333333333333333
 40
0.3333333333333333
 40
0.3703703703703704
 40
0.3703703703703704
 40
0.3703703703703704
 40
0.3703703703703704
 10
708.4614205545417
 20
254.1458571781408
 30
0.0
 10
708.4311680977834
 20
246.2136630178833
 30
0.0
 10
705.9746686095591
 20
240.2781310032113
 30
0.0
 10
701.0737706157999
 20
236.3150591687569
 30
0.0
 10
701.0737706157999
 20
236.3150591687569
 30
0.0
 10
696.1728726220481
 20
232.3519873343038
 30
0.0
 10
690.3644009257354
 20
229.871285880662
 30
0.0
 10
683.5818001220318
 20
228.8124498943606
 30
0.0
  0
SPLINE
  5
1CD
330
23
100
AcDbEntity
  8
0
100
AcDbSpline
210
0.0
220
0.0
230
1.0
 70
     8
 71
     3
 72
    12
 73
     8
 74
     0
 42
0.0000000001
 43
0.0000000001
 40
0.3703703703703704
 40
0.3703703703703704
 40
0.3703703703703704
 40
0.3703703703703704
 40
0.4074074074074074
 40
0.4074074074074074
 40
0.4074074074074074
 40
0.4074074074074074
 40
0.4444444444444445
 40
0.4444444444444445
 40
0.4444444444444445
 40
0.4444444444444445
 10
683.5818001220318
 20
228.8124498943606
 30
0.0
 10
676.7749973529262
 20
227.7475634167112
 30
0.0
 10
668.933560562908
 20
227.2393221432738
 30
0.0
 10
659.9788333644351
 20
227.2393221432738
 30
0.0
 10
659.9788333644351
 20
227.2393221432738
 30
0.0
 10
648.628111591239
 20
227.2393221432738
 30
0.0
 10
639.7580912716708
 20
227.535796219462
 30
0.0
 10
633.3445704403334
 20
228.1468958458276
 30
0.0
  0
SPLINE
  5
1CE
330
23
100
AcDbEntity
  8
0
100
AcDbSpline
210
0.0
220
0.0
230
1.0
 70
     8
 71
     3
 72
     8
 73
     4
 74
     0
 42
0.0000000001
 43
0.0000000001
 40
0.4444444444444445
 40
0.4444444444444445
 40
0.4444444444444445
 40
0.4444444444444445
 40
0.4814814814814815
 40
0.4814814814814815
 40
0.4814814814814815
 40
0.4814814814814815
 10
633.3445704403334
 20
228.1468958458276
 30
0.0
 10
626.9613020657539
 20
228.7519449808589
 30
0.0
 10
621.177032334843
 20
230.3855776454476
 30
0.0
 10
615.9736097735683
 20
233.0175413828227
 30
0.0
  0
SPLINE
  5
1CF
330
23
100
AcDbEntity
  8
0
100
AcDbSpline
210
0.0
220
0.0
230
1.0
 70
     8
 71
     3
 72
     8
 73
     4
 74
     0
 42
0.0000000001
 43
0.0000000001
 40
0.4814814814814815
 40
0.4814814814814815
 40
0.4814814814814815
 40
0.4814814814814815
 40
0.5185185185185186
 40
0.5185185185185186
 40
0.5185185185185186
 40
0.5185185185185186
 10
615.9736097735683
 20
233.0175413828227
 30
0.0
 10
610.8004396690451
 20
235.6495051202249
 30
0.0
 10
606.7708124297332
 20
240.0058588924472
 30
0.0
 10
603.9573339518397
 20
246.0926531908666
 30
0.0
  0
SPLINE
  5
1D0
330
23
100
AcDbEntity
  8
0
100
AcDbSpline
210
0.0
220
0.0
230
1.0
 70
     8
 71
     3
 72
    12
 73
     8
 74
     0
 42
0.0000000001
 43
0.0000000001
 40
0.5185185185185186
 40
0.5185185185185186
 40
0.5185185185185186
 40
0.5185185185185186
 40
0.5555555555555556
 40
0.5555555555555556
 40
0.5555555555555556
 40
0.5555555555555556
 40
0.5925925925925926
 40
0.5925925925925926
 40
0.5925925925925926
 40
0.5925925925925926
 10
603.9573339518397
 20
246.0926531908666
 30
0.0
 10
601.1136030171887
 20
252.1733969979506
 30
0.0
 10
599.6917375498628
 20
260.4686206392322
 30
0.0
 10
599.6917375498628
 20
270.9722736233902
 30
0.0
 10
599.6917375498628
 20
270.9722736233902
 30
0.0
 10
599.6917375498628
 20
280.0480106488588
 30
0.0
 10
600.5085538821572
 20
287.4356605876009
 30
0.0
 10
602.1421865467462
 20
293.1533749136466
 30
0.0
  0
SPLINE
  5
1D1
330
23
100
AcDbEntity
  8
0
100
AcDbSpline
210
0.0
220
0.0
230
1.0
 70
     8
 71
     3
 72
     8
 73
     4
 74
     0
 42
0.0000000001
 43
0.0000000001
 40
0.5925925925925926
 40
0.5925925925925926
 40
0.5925925925925926
 40
0.5925925925925926
 40
0.6296296296296296
 40
0.6296296296296296
 40
0.6296296296296296
 40
0.6296296296296296
 10
602.1421865467462
 20
293.1533749136466
 30
0.0
 10
603.7758192113346
 20
298.8408367829355
 30
0.0
 10
606.4077829487155
 20
303.2939984167805
 30
0.0
 10
610.0078253021597
 20
306.5310112891999
 30
0.0
  0
SPLINE
  5
1D2
330
23
100
AcDbEntity
  8
0
100
AcDbSpline
210
0.0
220
0.0
230
1.0
 70
     8
 71
     3
 72
     8
 73
     4
 74
     0
 42
0.0000000001
 43
0.0000000001
 40
0.6296296296296296
 40
0.6296296296296296
 40
0.6296296296296296
 40
0.6296296296296296
 40
0.6666666666666666
 40
0.6666666666666666
 40
0.6666666666666666
 40
0.6666666666666666
 10
610.0078253021597
 20
306.5310112891999
 30
0.0
 10
613.613918146945
 20
309.7377717048611
 30
0.0
 10
618.3333014001923
 20
312.0067059612394
 30
0.0
 10
624.1478235878532
 20
313.3378140583189
 30
0.0
  0
SPLINE
  5
1D3
330
23
100
AcDbEntity
  8
0
100
AcDbSpline
210
0.0
220
0.0
230
1.0
 70
     8
 71
     3
 72
    12
 73
     8
 74
     0
 42
0.0000000001
 43
0.0000000001
 40
0.6666666666666666
 40
0.6666666666666666
 40
0.6666666666666666
 40
0.6666666666666666
 40
0.7037037037037035
 40
0.7037037037037035
 40
0.7037037037037035
 40
0.7037037037037035
 40
0.7407407407407405
 40
0.7407407407407405
 40
0.7407407407407405
 40
0.7407407407407405
 10
624.1478235878532
 20
313.3378140583189
 30
0.0
 10
629.9865477409102
 20
314.6447201899901
 30
0.0
 10
637.368147188303
 20
315.3042237471735
 30
0.0
 10
646.3591773348757
 20
315.3042237471735
 30
0.0
 10
646.3591773348757
 20
315.3042237471735
 30
0.0
 10
647.4482657779208
 20
315.3042237471735
 30
0.0
 10
648.9608886155129
 20
315.2739712904157
 30
0.0
 10
650.8667933908591
 20
315.2134663769138
 30
0.0
  0
SPLINE
  5
1D4
330
23
100
AcDbEntity
  8
0
100
AcDbSpline
210
0.0
220
0.0
230
1.0
 70
     8
 71
     3
 72
     8
 73
     4
 74
     0
 42
0.0000000001
 43
0.0000000001
 40
0.7407407407407405
 40
0.7407407407407405
 40
0.7407407407407405
 40
0.7407407407407405
 40
0.7777777777777775
 40
0.7777777777777775
 40
0.7777777777777775
 40
0.7777777777777775
 10
650.8667933908591
 20
315.2134663769138
 30
0.0
 10
652.8029506229636
 20
315.152961463399
 30
0.0
 10
654.1945636335313
 20
315.1287594980037
 30
0.0
 10
655.108187827434
 20
315.1287594980037
 30
0.0
  0
SPLINE
  5
1D5
330
23
100
AcDbEntity
  8
0
100
AcDbSpline
210
0.0
220
0.0
230
1.0
 70
     8
 71
     3
 72
     8
 73
     4
 74
     0
 42
0.0000000001
 43
0.0000000001
 40
0.7777777777777775
 40
0.7777777777777775
 40
0.7777777777777775
 40
0.7777777777777775
 40
0.8148148148148145
 40
0.8148148148148145
 40
0.8148148148148145
 40
0.8148148148148145
 10
655.108187827434
 20
315.1287594980037
 30
0.0
 10
666.0898296282562
 20
314.6447201899901
 30
0.0
 10
674.3790027781965
 20
314.0638730203399
 30
0.0
 10
679.9515053118438
 20
313.3378140583189
 30
0.0
  0
SPLINE
  5
1D6
330
23
100
AcDbEntity
  8
0
100
AcDbSpline
210
0.0
220
0.0
230
1.0
 70
     8
 71
     3
 72
     8
 73
     4
 74
     0
 42
0.0000000001
 43
0.0000000001
 40
0.8148148148148145
 40
0.8148148148148145
 40
0.8148148148148145
 40
0.8148148148148145
 40
0.8518518518518513
 40
0.8518518518518513
 40
0.8518518518518513
 40
0.8518518518518513
 10
679.9515053118438
 20
313.3378140583189
 30
0.0
 10
685.5482098108868
 20
312.6117550962707
 30
0.0
 10
690.5459156662402
 20
310.978122431682
 30
0.0
 10
694.9627743519718
 20
308.4671685213108
 30
0.0
  0
SPLINE
  5
1D7
330
23
100
AcDbEntity
  8
0
100
AcDbSpline
210
0.0
220
0.0
230
1.0
 70
     8
 71
     3
 72
     8
 73
     4
 74
     0
 42
0.0000000001
 43
0.0000000001
 40
0.8518518518518513
 40
0.8518518518518513
 40
0.8518518518518513
 40
0.8518518518518513
 40
0.8888888888888883
 40
0.8888888888888883
 40
0.8888888888888883
 40
0.8888888888888883
 10
694.9627743519718
 20
308.4671685213108
 30
0.0
 10
699.3796330377095
 20
305.9259621541813
 30
0.0
 10
702.7679081938904
 20
301.9023854062122
 30
0.0
 10
705.1033978551113
 20
296.3601353293224
 30
0.0
  0
SPLINE
  5
1D8
330
23
100
AcDbEntity
  8
0
100
AcDbSpline
210
0.0
220
0.0
230
1.0
 70
     8
 71
     3
 72
    12
 73
     8
 74
     0
 42
0.0000000001
 43
0.0000000001
 40
0.8888888888888883
 40
0.8888888888888883
 40
0.8888888888888883
 40
0.8888888888888883
 40
0.9259259259259254
 40
0.9259259259259254
 40
0.9259259259259254
 40
0.9259259259259254
 40
0.9629629629629622
 40
0.9629629629629622
 40
0.9629629629629622
 40
0.9629629629629622
 10
705.1033978551113
 20
296.3601353293224
 30
0.0
 10
707.463089481735
 20
290.8239357437677
 30
0.0
 10
708.6429352950463
 20
283.1640136942746
 30
0.0
 10
708.6429352950463
 20
273.3864196721516
 30
0.0
 10
708.6429352950463
 20
273.3864196721516
 30
0.0
 10
708.6429352950463
 20
272.878178398743
 30
0.0
 10
708.6126828382889
 20
272.152119436695
 30
0.0
 10
708.5521779247942
 20
271.1840408206525
 30
0.0
  0
SPLINE
  5
1D9
330
23
100
AcDbEntity
  8
0
100
AcDbSpline
210
0.0
220
0.0
230
1.0
 70
     8
 71
     3
 72
     8
 73
     4
 74
     0
 42
0.0000000001
 43
0.0000000001
 40
0.9629629629629622
 40
0.9629629629629622
 40
0.9629629629629622
 40
0.9629629629629622
 40
1.0
 40
1.0
 40
1.0
 40
1.0
 10
708.5521779247942
 20
271.1840408206525
 30
0.0
 10
708.4916730112922
 20
270.2099117132483
 30
0.0
 10
708.4614205545417
 20
269.4838527512003
 30
0.0
 10
708.4614205545417
 20
269.0058639345342
 30
0.0
  0
SPLINE
  5
1DA
330
23
100
AcDbEntity
  8
0
100
AcDbSpline
210
0.0
220
0.0
230
1.0
 70
     8
 71
     3
 72
     8
 73
     4
 74
     0
 42
0.0000000001
 43
0.0000000001
 40
0.0
 40
0.0
 40
0.0
 40
0.0
 40
0.1
 40
0.1
 40
0.1
 40
0.1
 10
695.3863087465046
 20
279.8967483650985
 30
0.0
 10
695.2652989194935
 20
283.9808300265694
 30
0.0
 10
694.8417645249751
 20
287.4054081308431
 30
0.0
 10
694.1459580196911
 20
290.1886341519927
 30
0.0
  0
SPLINE
  5
1DB
330
23
100
AcDbEntity
  8
0
100
AcDbSpline
210
0.0
220
0.0
230
1.0
 70
     8
 71
     3
 72
     8
 73
     4
 74
     0
 42
0.0000000001
 43
0.0000000001
 40
0.1
 40
0.1
 40
0.1
 40
0.1
 40
0.2
 40
0.2
 40
0.2
 40
0.2
 10
694.1459580196911
 20
290.1886341519927
 30
0.0
 10
693.4804039711512
 20
292.9416077163843
 30
0.0
 10
691.9980335903233
 20
295.331551799765
 30
0.0
 10
689.7593517906966
 20
297.2979614886197
 30
0.0
  0
SPLINE
  5
1DC
330
23
100
AcDbEntity
  8
0
100
AcDbSpline
210
0.0
220
0.0
230
1.0
 70
     8
 71
     3
 72
     8
 73
     4
 74
     0
 42
0.0000000001
 43
0.0000000001
 40
0.2
 40
0.2
 40
0.2
 40
0.2
 40
0.3
 40
0.3
 40
0.3
 40
0.3
 10
689.7593517906966
 20
297.2979614886197
 30
0.0
 10
686.9700752782059
 20
299.9662281741156
 30
0.0
 10
683.0070034437512
 20
301.7208706656937
 30
0.0
 10
677.8943382527293
 20
302.5981919114892
 30
0.0
  0
SPLINE
  5
1DD
330
23
100
AcDbEntity
  8
0
100
AcDbSpline
210
0.0
220
0.0
230
1.0
 70
     8
 71
     3
 72
     8
 73
     4
 74
     0
 42
0.0000000001
 43
0.0000000001
 40
0.3
 40
0.3
 40
0.3
 40
0.3
 40
0.4
 40
0.4
 40
0.4
 40
0.4
 10
677.8943382527293
 20
302.5981919114892
 30
0.0
 10
672.7756225703587
 20
303.4452607005409
 30
0.0
 10
666.9066459605505
 20
303.868795095067
 30
0.0
 10
660.3116103887082
 20
303.868795095067
 30
0.0
  0
SPLINE
  5
1DE
330
23
100
AcDbEntity
  8
0
100
AcDbSpline
210
0.0
220
0.0
230
1.0
 70
    24
 71
     3
 72
     8
 73
     4
 74
     0
 42
0.0000000001
 43
0.0000000001
 40
0.4
 40
0.4
 40
0.4
 40
0.4
 40
0.5
 40
0.5
 40
0.5
 40
0.5
 10
660.3116103887082
 20
303.868795095067
 30
0.0
 10
660.3116103887082
 20
303.868795095067
 30
0.0
 10
650.3525016260805
 20
303.868795095067
 30
0.0
 10
650.3525016260805
 20
303.868795095067
 30
0.0
  0
SPLINE
  5
1DF
330
23
100
AcDbEntity
  8
0
100
AcDbSpline
210
0.0
220
0.0
230
1.0
 70
     8
 71
     3
 72
     8
 73
     4
 74
     0
 42
0.0000000001
 43
0.0000000001
 40
0.5
 40
0.5
 40
0.5
 40
0.5
 40
0.6
 40
0.6
 40
0.6
 40
0.6
 10
650.3525016260805
 20
303.868795095067
 30
0.0
 10
643.2068713413528
 20
303.868795095067
 30
0.0
 10
636.9446127937767
 20
303.4755131572991
 30
0.0
 10
631.5596754919901
 20
302.6526463336426
 30
0.0
  0
SPLINE
  5
1E0
330
23
100
AcDbEntity
  8
0
100
AcDbSpline
210
0.0
220
0.0
230
1.0
 70
     8
 71
     3
 72
     8
 73
     4
 74
     0
 42
0.0000000001
 43
0.0000000001
 40
0.6
 40
0.6
 40
0.6
 40
0.6
 40
0.7
 40
0.7
 40
0.7
 40
0.7
 10
631.5596754919901
 20
302.6526463336426
 30
0.0
 10
626.1444857334595
 20
301.8721329494541
 30
0.0
 10
621.8728388401337
 20
300.1477429146067
 30
0.0
 10
618.726583337967
 20
297.4794762291393
 30
0.0
  0
SPLINE
  5
1E1
330
23
100
AcDbEntity
  8
0
100
AcDbSpline
210
0.0
220
0.0
230
1.0
 70
     8
 71
     3
 72
     8
 73
     4
 74
     0
 42
0.0000000001
 43
0.0000000001
 40
0.7
 40
0.7
 40
0.7
 40
0.7
 40
0.8
 40
0.8
 40
0.8
 40
0.8
 10
618.726583337967
 20
297.4794762291393
 30
0.0
 10
616.4576490815961
 20
295.5433189970285
 30
0.0
 10
614.9450262440109
 20
293.1533749136466
 30
0.0
 10
614.2189672819763
 20
290.3398964357401
 30
0.0
  0
SPLINE
  5
1E2
330
23
100
AcDbEntity
  8
0
100
AcDbSpline
210
0.0
220
0.0
230
1.0
 70
     8
 71
     3
 72
     8
 73
     4
 74
     0
 42
0.0000000001
 43
0.0000000001
 40
0.8
 40
0.8
 40
0.8
 40
0.8
 40
0.9
 40
0.9
 40
0.9
 40
0.9
 10
614.2189672819763
 20
290.3398964357401
 30
0.0
 10
613.4929083199413
 20
287.5264179578465
 30
0.0
 10
613.0088690119137
 20
284.0413349400843
 30
0.0
 10
612.7668493579071
 20
279.8967483650985
 30
0.0
  0
SPLINE
  5
1E3
330
23
100
AcDbEntity
  8
0
100
AcDbSpline
210
0.0
220
0.0
230
1.0
 70
    24
 71
     3
 72
     8
 73
     4
 74
     0
 42
0.0000000001
 43
0.0000000001
 40
0.9
 40
0.9
 40
0.9
 40
0.9
 40
1.0
 40
1.0
 40
1.0
 40
1.0
 10
612.7668493579071
 20
279.8967483650985
 30
0.0
 10
612.7668493579071
 20
279.8967483650985
 30
0.0
 10
695.3863087465046
 20
279.8967483650985
 30
0.0
 10
695.3863087465046
 20
279.8967483650985
 30
0.0
  0
SPLINE
  5
1E5
330
23
100
AcDbEntity
  8
0
100
AcDbSpline
210
0.0
220
0.0
230
1.0
 70
    24
 71
     3
 72
     8
 73
     4
 74
     0
 42
0.0000000001
 43
0.0000000001
 40
0.0
 40
0.0
 40
0.0
 40
0.0
 40
0.0476190476190476
 40
0.0476190476190476
 40
0.0476190476190476
 40
0.0476190476190476
 10
760.9999999961867
 20
313.9999999999933
 30
0.0
 10
760.9999999961867
 20
313.9999999999933
 30
0.0
 10
773.7120823232128
 20
313.9999999999933
 30
0.0
 10
773.7120823232128
 20
313.9999999999933
 30
0.0
  0
SPLINE
  5
1E6
330
23
100
AcDbEntity
  8
0
100
AcDbSpline
210
0.0
220
0.0
230
1.0
 70
    24
 71
     3
 72
     8
 73
     4
 74
     0
 42
0.0000000001
 43
0.0000000001
 40
0.0476190476190476
 40
0.0476190476190476
 40
0.0476190476190476
 40
0.0476190476190476
 40
0.0952380952380952
 40
0.0952380952380952
 40
0.0952380952380952
 40
0.0952380952380952
 10
773.7120823232128
 20
313.9999999999933
 30
0.0
 10
773.7120823232128
 20
313.9999999999933
 30
0.0
 10
773.712082323213
 20
298.7803318694479
 30
0.0
 10
773.712082323213
 20
298.7803318694479
 30
0.0
  0
SPLINE
  5
1E7
330
23
100
AcDbEntity
  8
0
100
AcDbSpline
210
0.0
220
0.0
230
1.0
 70
     8
 71
     3
 72
     8
 73
     4
 74
     0
 42
0.0000000001
 43
0.0000000001
 40
0.0952380952380952
 40
0.0952380952380952
 40
0.0952380952380952
 40
0.0952380952380952
 40
0.1428571428571429
 40
0.1428571428571429
 40
0.1428571428571429
 40
0.1428571428571429
 10
773.712082323213
 20
298.7803318694479
 30
0.0
 10
775.9205116660823
 20
305.4419228461537
 30
0.0
 10
779.9743408707962
 20
309.828529075134
 30
0.0
 10
785.8191155151942
 20
311.9462010477377
 30
0.0
  0
SPLINE
  5
1E8
330
23
100
AcDbEntity
  8
0
100
AcDbSpline
210
0.0
220
0.0
230
1.0
 70
     8
 71
     3
 72
    12
 73
     8
 74
     0
 42
0.0000000001
 43
0.0000000001
 40
0.1428571428571429
 40
0.1428571428571429
 40
0.1428571428571429
 40
0.1428571428571429
 40
0.1904761904761905
 40
0.1904761904761905
 40
0.1904761904761905
 40
0.1904761904761905
 40
0.2380952380952381
 40
0.2380952380952381
 40
0.2380952380952381
 40
0.2380952380952381
 10
785.8191155151942
 20
311.9462010477377
 30
0.0
 10
791.6578396682587
 20
314.0638730203399
 30
0.0
 10
798.9547322367402
 20
315.1287594980037
 30
0.0
 10
807.6674397811993
 20
315.1287594980037
 30
0.0
 10
807.6674397811993
 20
315.1287594980037
 30
0.0
 10
815.9626634224943
 20
315.1287594980037
 30
0.0
 10
822.5879514510877
 20
314.8262349304813
 30
0.0
 10
827.6098592718506
 20
314.1848828473566
 30
0.0
  0
SPLINE
  5
1E9
330
23
100
AcDbEntity
  8
0
100
AcDbSpline
210
0.0
220
0.0
230
1.0
 70
     8
 71
     3
 72
     8
 73
     4
 74
     0
 42
0.0000000001
 43
0.0000000001
 40
0.2380952380952381
 40
0.2380952380952381
 40
0.2380952380952381
 40
0.2380952380952381
 40
0.2857142857142857
 40
0.2857142857142857
 40
0.2857142857142857
 40
0.2857142857142857
 10
827.6098592718506
 20
314.1848828473566
 30
0.0
 10
832.6378175839682
 20
313.5495812555681
 30
0.0
 10
836.9639188994403
 20
312.097463331498
 30
0.0
 10
840.5337087961259
 20
309.8587815318791
 30
0.0
  0
SPLINE
  5
1EA
330
23
100
AcDbEntity
  8
0
100
AcDbSpline
210
0.0
220
0.0
230
1.0
 70
     8
 71
     3
 72
     8
 73
     4
 74
     0
 42
0.0000000001
 43
0.0000000001
 40
0.2857142857142857
 40
0.2857142857142857
 40
0.2857142857142857
 40
0.2857142857142857
 40
0.3333333333333333
 40
0.3333333333333333
 40
0.3333333333333333
 40
0.3333333333333333
 10
840.5337087961259
 20
309.8587815318791
 30
0.0
 10
844.1337511495765
 20
307.6200997322591
 30
0.0
 10
846.8625227485661
 20
304.1410672058322
 30
0.0
 10
848.6776701536598
 20
299.4458859179811
 30
0.0
  0
SPLINE
  5
1EB
330
23
100
AcDbEntity
  8
0
100
AcDbSpline
210
0.0
220
0.0
230
1.0
 70
     8
 71
     3
 72
    12
 73
     8
 74
     0
 42
0.0000000001
 43
0.0000000001
 40
0.3333333333333333
 40
0.3333333333333333
 40
0.3333333333333333
 40
0.3333333333333333
 40
0.3809523809523809
 40
0.3809523809523809
 40
0.3809523809523809
 40
0.3809523809523809
 40
0.4285714285714287
 40
0.4285714285714287
 40
0.4285714285714287
 40
0.4285714285714287
 10
848.6776701536598
 20
299.4458859179811
 30
0.0
 10
850.5230700155049
 20
294.7870075782354
 30
0.0
 10
851.4306437180515
 20
288.3734867468983
 30
0.0
 10
851.4306437180515
 20
280.2295253893786
 30
0.0
 10
851.4306437180515
 20
280.2295253893786
 30
0.0
 10
851.4306437180515
 20
279.7757385380945
 30
0.0
 10
851.4003912613011
 20
279.0799320328032
 30
0.0
 10
851.3398863477993
 20
278.2026107870077
 30
0.0
  0
SPLINE
  5
1EC
330
23
100
AcDbEntity
  8
0
100
AcDbSpline
210
0.0
220
0.0
230
1.0
 70
     8
 71
     3
 72
     8
 73
     4
 74
     0
 42
0.0000000001
 43
0.0000000001
 40
0.4285714285714287
 40
0.4285714285714287
 40
0.4285714285714287
 40
0.4285714285714287
 40
0.4761904761904762
 40
0.4761904761904762
 40
0.4761904761904762
 40
0.4761904761904762
 10
851.3398863477993
 20
278.2026107870077
 30
0.0
 10
851.2793814342973
 20
277.3252895412251
 30
0.0
 10
851.2491289775466
 20
276.6597354926788
 30
0.0
 10
851.2491289775466
 20
276.2664535549098
 30
0.0
  0
SPLINE
  5
1ED
330
23
100
AcDbEntity
  8
0
100
AcDbSpline
210
0.0
220
0.0
230
1.0
 70
    24
 71
     3
 72
     8
 73
     4
 74
     0
 42
0.0000000001
 43
0.0000000001
 40
0.4761904761904762
 40
0.4761904761904762
 40
0.4761904761904762
 40
0.4761904761904762
 40
0.5238095238095238
 40
0.5238095238095238
 40
0.5238095238095238
 40
0.5238095238095238
 10
851.2491289775466
 20
276.2664535549098
 30
0.0
 10
851.2491289775466
 20
276.2664535549098
 30
0.0
 10
838.7185613910322
 20
276.2664535549098
 30
0.0
 10
838.7185613910322
 20
276.2664535549098
 30
0.0
  0
SPLINE
  5
1EE
330
23
100
AcDbEntity
  8
0
100
AcDbSpline
210
0.0
220
0.0
230
1.0
 70
     8
 71
     3
 72
     8
 73
     4
 74
     0
 42
0.0000000001
 43
0.0000000001
 40
0.5238095238095238
 40
0.5238095238095238
 40
0.5238095238095238
 40
0.5238095238095238
 40
0.5714285714285714
 40
0.5714285714285714
 40
0.5714285714285714
 40
0.5714285714285714
 10
838.7185613910322
 20
276.2664535549098
 30
0.0
 10
838.7185613910322
 20
283.5935985801501
 30
0.0
 10
838.0530073424989
 20
289.1600506224353
 30
0.0
 10
836.6916467886756
 20
293.002112629886
 30
0.0
  0
SPLINE
  5
1EF
330
23
100
AcDbEntity
  8
0
100
AcDbSpline
210
0.0
220
0.0
230
1.0
 70
     8
 71
     3
 72
     8
 73
     4
 74
     0
 42
0.0000000001
 43
0.0000000001
 40
0.5714285714285714
 40
0.5714285714285714
 40
0.5714285714285714
 40
0.5714285714285714
 40
0.6190476190476191
 40
0.6190476190476191
 40
0.6190476190476191
 40
0.6190476190476191
 10
836.6916467886756
 20
293.002112629886
 30
0.0
 10
835.3605386916026
 20
296.844174637337
 30
0.0
 10
832.8193323244738
 20
299.6274006584998
 30
0.0
 10
829.0922296526776
 20
301.3275887279386
 30
0.0
  0
SPLINE
  5
1F0
330
23
100
AcDbEntity
  8
0
100
AcDbSpline
210
0.0
220
0.0
230
1.0
 70
     8
 71
     3
 72
     8
 73
     4
 74
     0
 42
0.0000000001
 43
0.0000000001
 40
0.6190476190476191
 40
0.6190476190476191
 40
0.6190476190476191
 40
0.6190476190476191
 40
0.6666666666666668
 40
0.6666666666666668
 40
0.6666666666666668
 40
0.6666666666666668
 10
829.0922296526776
 20
301.3275887279386
 30
0.0
 10
825.3409250154794
 20
303.021726306015
 30
0.0
 10
819.7744729731873
 20
303.868795095067
 30
0.0
 10
812.3868230344529
 20
303.868795095067
 30
0.0
  0
SPLINE
  5
1F1
330
23
100
AcDbEntity
  8
0
100
AcDbSpline
210
0.0
220
0.0
230
1.0
 70
    24
 71
     3
 72
     8
 73
     4
 74
     0
 42
0.0000000001
 43
0.0000000001
 40
0.6666666666666668
 40
0.6666666666666668
 40
0.6666666666666668
 40
0.6666666666666668
 40
0.7142857142857145
 40
0.7142857142857145
 40
0.7142857142857145
 40
0.7142857142857145
 10
812.3868230344529
 20
303.868795095067
 30
0.0
 10
812.3868230344529
 20
303.868795095067
 30
0.0
 10
808.0607217189678
 20
303.868795095067
 30
0.0
 10
808.0607217189678
 20
303.868795095067
 30
0.0
  0
SPLINE
  5
1F2
330
23
100
AcDbEntity
  8
0
100
AcDbSpline
210
0.0
220
0.0
230
1.0
 70
     8
 71
     3
 72
     8
 73
     4
 74
     0
 42
0.0000000001
 43
0.0000000001
 40
0.7142857142857145
 40
0.7142857142857145
 40
0.7142857142857145
 40
0.7142857142857145
 40
0.7619047619047621
 40
0.7619047619047621
 40
0.7619047619047621
 40
0.7619047619047621
 10
808.0607217189678
 20
303.868795095067
 30
0.0
 10
799.9167603614471
 20
303.868795095067
 30
0.0
 10
793.4427346166014
 20
303.2032410465348
 30
0.0
 10
788.632593993095
 20
301.9023854062122
 30
0.0
  0
SPLINE
  5
1F3
330
23
100
AcDbEntity
  8
0
100
AcDbSpline
210
0.0
220
0.0
230
1.0
 70
     8
 71
     3
 72
     8
 73
     4
 74
     0
 42
0.0000000001
 43
0.0000000001
 40
0.7619047619047621
 40
0.7619047619047621
 40
0.7619047619047621
 40
0.7619047619047621
 40
0.8095238095238098
 40
0.8095238095238098
 40
0.8095238095238098
 40
0.8095238095238098
 10
788.632593993095
 20
301.9023854062122
 30
0.0
 10
783.7861504214886
 20
300.5652268177972
 30
0.0
 10
780.0953506977996
 20
297.9332630803948
 30
0.0
 10
777.5541443306638
 20
293.939938789198
 30
0.0
  0
SPLINE
  5
1F4
330
23
100
AcDbEntity
  8
0
100
AcDbSpline
210
0.0
220
0.0
230
1.0
 70
     8
 71
     3
 72
    12
 73
     8
 74
     0
 42
0.0000000001
 43
0.0000000001
 40
0.8095238095238098
 40
0.8095238095238098
 40
0.8095238095238098
 40
0.8095238095238098
 40
0.8571428571428574
 40
0.8571428571428574
 40
0.8571428571428574
 40
0.8571428571428574
 40
0.9047619047619052
 40
0.9047619047619052
 40
0.9047619047619052
 40
0.9047619047619052
 10
777.5541443306638
 20
293.939938789198
 30
0.0
 10
774.9826855067777
 20
289.9466144979852
 30
0.0
 10
773.712082323213
 20
284.0413349400843
 30
0.0
 10
773.712082323213
 20
276.2362010981659
 30
0.0
 10
773.712082323213
 20
276.2362010981659
 30
0.0
 10
773.712082323213
 20
276.2362010981659
 30
0.0
 10
773.7120823232128
 20
227.9999999999933
 30
0.0
 10
773.7120823232128
 20
227.9999999999933
 30
0.0
  0
SPLINE
  5
1F5
330
23
100
AcDbEntity
  8
0
100
AcDbSpline
210
0.0
220
0.0
230
1.0
 70
    24
 71
     3
 72
     8
 73
     4
 74
     0
 42
0.0000000001
 43
0.0000000001
 40
0.9047619047619052
 40
0.9047619047619052
 40
0.9047619047619052
 40
0.9047619047619052
 40
0.9523809523809527
 40
0.9523809523809527
 40
0.9523809523809527
 40
0.9523809523809527
 10
773.7120823232128
 20
227.9999999999933
 30
0.0
 10
773.7120823232128
 20
227.9999999999933
 30
0.0
 10
760.9999999961864
 20
227.9999999999933
 30
0.0
 10
760.9999999961864
 20
227.9999999999933
 30
0.0
  0
SPLINE
  5
1F6
330
23
100
AcDbEntity
  8
0
100
AcDbSpline
210
0.0
220
0.0
230
1.0
 70
    24
 71
     3
 72
     8
 73
     4
 74
     0
 42
0.0000000001
 43
0.0000000001
 40
0.9523809523809527
 40
0.9523809523809527
 40
0.9523809523809527
 40
0.9523809523809527
 40
1.0
 40
1.0
 40
1.0
 40
1.0
 10
760.9999999961864
 20
227.9999999999933
 30
0.0
 10
760.9999999961864
 20
227.9999999999933
 30
0.0
 10
760.9999999961867
 20
313.9999999999933
 30
0.0
 10
760.9999999961867
 20
313.9999999999933
 30
0.0
  0
SPLINE
  5
1F7
330
23
100
AcDbEntity
  8
0
100
AcDbSpline
210
0.0
220
0.0
230
1.0
 70
    24
 71
     3
 72
     8
 73
     4
 74
     0
 42
0.0000000001
 43
0.0000000001
 40
0.0
 40
0.0
 40
0.0
 40
0.0
 40
0.0188679245283019
 40
0.0188679245283019
 40
0.0188679245283019
 40
0.0188679245283019
 10
1079.362590820407
 20
265.8777599064214
 30
0.0
 10
1079.362590820407
 20
265.8777599064214
 30
0.0
 10
1058.542850083953
 20
265.8777599064214
 30
0.0
 10
1058.542850083953
 20
265.8777599064214
 30
0.0
  0
SPLINE
  5
1F8
330
23
100
AcDbEntity
  8
0
100
AcDbSpline
210
0.0
220
0.0
230
1.0
 70
     8
 71
     3
 72
     8
 73
     4
 74
     0
 42
0.0000000001
 43
0.0000000001
 40
0.0188679245283019
 40
0.0188679245283019
 40
0.0188679245283019
 40
0.0188679245283019
 40
0.0377358490566038
 40
0.0377358490566038
 40
0.0377358490566038
 40
0.0377358490566038
 10
1058.542850083953
 20
265.8777599064214
 30
0.0
 10
1058.542850083953
 20
279.4611129878741
 30
0.0
 10
1055.02751460942
 20
287.859194982127
 30
0.0
 10
1048.008944643052
 20
291.072005889151
 30
0.0
  0
SPLINE
  5
1F9
330
23
100
AcDbEntity
  8
0
100
AcDbSpline
210
0.0
220
0.0
230
1.0
 70
     8
 71
     3
 72
     8
 73
     4
 74
     0
 42
0.0000000001
 43
0.0000000001
 40
0.0377358490566038
 40
0.0377358490566038
 40
0.0377358490566038
 40
0.0377358490566038
 40
0.0566037735849057
 40
0.0566037735849057
 40
0.0566037735849057
 40
0.0566037735849057
 10
1048.008944643052
 20
291.072005889151
 30
0.0
 10
1042.866026995286
 20
293.5950607822193
 30
0.0
 10
1035.369468212245
 20
295.2226429554595
 30
0.0
 10
1025.513217802574
 20
295.9123989693868
 30
0.0
  0
SPLINE
  5
1FA
330
23
100
AcDbEntity
  8
0
100
AcDbSpline
210
0.0
220
0.0
230
1.0
 70
     8
 71
     3
 72
     8
 73
     4
 74
     0
 42
0.0000000001
 43
0.0000000001
 40
0.0566037735849057
 40
0.0566037735849057
 40
0.0566037735849057
 40
0.0566037735849057
 40
0.0754716981132075
 40
0.0754716981132075
 40
0.0754716981132075
 40
0.0754716981132075
 10
1025.513217802574
 20
295.9123989693868
 30
0.0
 10
1015.663017884252
 20
296.6384579314361
 30
0.0
 10
1004.481709868864
 20
296.9772854470506
 30
0.0
 10
991.9753442477585
 20
296.9772854470506
 30
0.0
  0
SPLINE
  5
1FB
330
23
100
AcDbEntity
  8
0
100
AcDbSpline
210
0.0
220
0.0
230
1.0
 70
    24
 71
     3
 72
     8
 73
     4
 74
     0
 42
0.0000000001
 43
0.0000000001
 40
0.0754716981132075
 40
0.0754716981132075
 40
0.0754716981132075
 40
0.0754716981132075
 40
0.0943396226415094
 40
0.0943396226415094
 40
0.0943396226415094
 40
0.0943396226415094
 10
991.9753442477585
 20
296.9772854470506
 30
0.0
 10
991.9753442477585
 20
296.9772854470506
 30
0.0
 10
984.8176129803269
 20
296.9772854470506
 30
0.0
 10
984.8176129803269
 20
296.9772854470506
 30
0.0
  0
SPLINE
  5
1FC
330
23
100
AcDbEntity
  8
0
100
AcDbSpline
210
0.0
220
0.0
230
1.0
 70
     8
 71
     3
 72
     8
 73
     4
 74
     0
 42
0.0000000001
 43
0.0000000001
 40
0.0943396226415094
 40
0.0943396226415094
 40
0.0943396226415094
 40
0.0943396226415094
 40
0.1132075471698113
 40
0.1132075471698113
 40
0.1132075471698113
 40
0.1132075471698113
 10
984.8176129803269
 20
296.9772854470506
 30
0.0
 10
973.2974774493227
 20
296.9772854470506
 30
0.0
 10
961.474817350804
 20
296.4206402428241
 30
0.0
 10
949.3496326847626
 20
295.3497032738118
 30
0.0
  0
SPLINE
  5
1FD
330
23
100
AcDbEntity
  8
0
100
AcDbSpline
210
0.0
220
0.0
230
1.0
 70
     8
 71
     3
 72
     8
 73
     4
 74
     0
 42
0.0000000001
 43
0.0000000001
 40
0.1132075471698113
 40
0.1132075471698113
 40
0.1132075471698113
 40
0.1132075471698113
 40
0.1320754716981132
 40
0.1320754716981132
 40
0.1320754716981132
 40
0.1320754716981132
 10
949.3496326847626
 20
295.3497032738118
 30
0.0
 10
937.2304985100766
 20
294.2787663048124
 30
0.0
 10
928.015600183544
 20
292.3123566159576
 30
0.0
 10
921.8077960581142
 20
289.5291305948079
 30
0.0
  0
SPLINE
  5
1FE
330
23
100
AcDbEntity
  8
0
100
AcDbSpline
210
0.0
220
0.0
230
1.0
 70
     8
 71
     3
 72
    12
 73
     8
 74
     0
 42
0.0000000001
 43
0.0000000001
 40
0.1320754716981132
 40
0.1320754716981132
 40
0.1320754716981132
 40
0.1320754716981132
 40
0.1509433962264151
 40
0.1509433962264151
 40
0.1509433962264151
 40
0.1509433962264151
 40
0.169811320754717
 40
0.169811320754717
 40
0.169811320754717
 40
0.169811320754717
 10
921.8077960581142
 20
289.5291305948079
 30
0.0
 10
914.268883835618
 20
286.316319687798
 30
0.0
 10
910.4994277243731
 20
278.3478225794196
 30
0.0
 10
910.4994277243731
 20
265.6236392697171
 30
0.0
 10
910.4994277243731
 20
265.6236392697171
 30
0.0
 10
910.4994277243731
 20
258.5566653725294
 30
0.0
 10
911.8668387695388
 20
253.0749202091414
 30
0.0
 10
914.6500647906886
 20
249.2207572189794
 30
0.0
  0
SPLINE
  5
1FF
330
23
100
AcDbEntity
  8
0
100
AcDbSpline
210
0.0
220
0.0
230
1.0
 70
     8
 71
     3
 72
     8
 73
     4
 74
     0
 42
0.0000000001
 43
0.0000000001
 40
0.169811320754717
 40
0.169811320754717
 40
0.169811320754717
 40
0.169811320754717
 40
0.1886792452830189
 40
0.1886792452830189
 40
0.1886792452830189
 40
0.1886792452830189
 10
914.6500647906886
 20
249.2207572189794
 30
0.0
 10
917.3909373723827
 20
245.3181902980267
 30
0.0
 10
921.160393483634
 20
242.6620245952305
 30
0.0
 10
925.9160796849878
 20
241.2522601106153
 30
0.0
  0
SPLINE
  5
200
330
23
100
AcDbEntity
  8
0
100
AcDbSpline
210
0.0
220
0.0
230
1.0
 70
     8
 71
     3
 72
     8
 73
     4
 74
     0
 42
0.0000000001
 43
0.0000000001
 40
0.1886792452830189
 40
0.1886792452830189
 40
0.1886792452830189
 40
0.1886792452830189
 40
0.2075471698113207
 40
0.2075471698113207
 40
0.2075471698113207
 40
0.2075471698113207
 10
925.9160796849878
 20
241.2522601106153
 30
0.0
 10
930.6717658863339
 20
239.7940916951837
 30
0.0
 10
936.7585601847466
 20
238.9409724147962
 30
0.0
 10
944.2067150369899
 20
238.6384478472884
 30
0.0
  0
SPLINE
  5
201
330
23
100
AcDbEntity
  8
0
100
AcDbSpline
210
0.0
220
0.0
230
1.0
 70
     8
 71
     3
 72
    12
 73
     8
 74
     0
 42
0.0000000001
 43
0.0000000001
 40
0.2075471698113207
 40
0.2075471698113207
 40
0.2075471698113207
 40
0.2075471698113207
 40
0.2264150943396226
 40
0.2264150943396226
 40
0.2264150943396226
 40
0.2264150943396226
 40
0.2452830188679245
 40
0.2452830188679245
 40
0.2452830188679245
 40
0.2452830188679245
 10
944.2067150369899
 20
238.6384478472884
 30
0.0
 10
948.2786957157568
 20
238.2935698403097
 30
0.0
 10
954.5349037719907
 20
238.1241560825027
 30
0.0
 10
962.9692887143358
 20
238.1241560825027
 30
0.0
 10
962.9692887143358
 20
238.1241560825027
 30
0.0
 10
967.3861474000673
 20
238.1241560825027
 30
0.0
 10
974.1082432902617
 20
238.1665095219577
 30
0.0
 10
983.1053239281903
 20
238.2512164008691
 30
0.0
  0
SPLINE
  5
202
330
23
100
AcDbEntity
  8
0
100
AcDbSpline
210
0.0
220
0.0
230
1.0
 70
     8
 71
     3
 72
    12
 73
     8
 74
     0
 42
0.0000000001
 43
0.0000000001
 40
0.2452830188679245
 40
0.2452830188679245
 40
0.2452830188679245
 40
0.2452830188679245
 40
0.2641509433962264
 40
0.2641509433962264
 40
0.2641509433962264
 40
0.2641509433962264
 40
0.2830188679245283
 40
0.2830188679245283
 40
0.2830188679245283
 40
0.2830188679245283
 10
983.1053239281903
 20
238.2512164008691
 30
0.0
 10
992.1024045661109
 20
238.3419737711146
 30
0.0
 10
998.82450045632
 20
238.3782767192069
 30
0.0
 10
1003.326066020955
 20
238.3782767192069
 30
0.0
 10
1003.326066020955
 20
238.3782767192069
 30
0.0
 10
1017.762538382815
 20
238.3782767192069
 30
0.0
 10
1029.669905360238
 20
237.8700354457982
 30
0.0
 10
1039.005813513782
 20
236.7990984767988
 30
0.0
  0
SPLINE
  5
203
330
23
100
AcDbEntity
  8
0
100
AcDbSpline
210
0.0
220
0.0
230
1.0
 70
     8
 71
     3
 72
     8
 73
     4
 74
     0
 42
0.0000000001
 43
0.0000000001
 40
0.2830188679245283
 40
0.2830188679245283
 40
0.2830188679245283
 40
0.2830188679245283
 40
0.3018867924528302
 40
0.3018867924528302
 40
0.3018867924528302
 40
0.3018867924528302
 10
1039.005813513782
 20
236.7990984767988
 30
0.0
 10
1049.933000892451
 20
235.6374041375265
 30
0.0
 10
1058.627556962863
 20
233.495530199515
 30
0.0
 10
1065.053178776898
 20
230.3250727319459
 30
0.0
  0
SPLINE
  5
204
330
23
100
AcDbEntity
  8
0
100
AcDbSpline
210
0.0
220
0.0
230
1.0
 70
     8
 71
     3
 72
     8
 73
     4
 74
     0
 42
0.0000000001
 43
0.0000000001
 40
0.3018867924528302
 40
0.3018867924528302
 40
0.3018867924528302
 40
0.3018867924528302
 40
0.3207547169811321
 40
0.3207547169811321
 40
0.3207547169811321
 40
0.3207547169811321
 10
1065.053178776898
 20
230.3250727319459
 30
0.0
 10
1071.521154030388
 20
227.2030191951816
 30
0.0
 10
1076.234486792287
 20
222.4896864332837
 30
0.0
 10
1079.277883941503
 20
216.1487714981598
 30
0.0
  0
SPLINE
  5
205
330
23
100
AcDbEntity
  8
0
100
AcDbSpline
210
0.0
220
0.0
230
1.0
 70
     8
 71
     3
 72
    16
 73
    12
 74
     0
 42
0.0000000001
 43
0.0000000001
 40
0.3207547169811321
 40
0.3207547169811321
 40
0.3207547169811321
 40
0.3207547169811321
 40
0.3396226415094339
 40
0.3396226415094339
 40
0.3396226415094339
 40
0.3396226415094339
 40
0.3584905660377358
 40
0.3584905660377358
 40
0.3584905660377358
 40
0.3584905660377358
 40
0.3773584905660377
 40
0.3773584905660377
 40
0.3773584905660377
 40
0.3773584905660377
 10
1079.277883941503
 20
216.1487714981598
 30
0.0
 10
1082.272877159902
 20
209.8139070543701
 30
0.0
 10
1083.773399014789
 20
201.2887647417655
 30
0.0
 10
1083.773399014789
 20
190.579395051708
 30
0.0
 10
1083.773399014789
 20
190.579395051708
 30
0.0
 10
1083.773399014789
 20
179.9547322405464
 30
0.0
 10
1082.14581684155
 20
171.1754692912371
 30
0.0
 10
1078.890652495077
 20
164.2779091518722
 30
0.0
 10
1078.890652495077
 20
164.2779091518722
 30
0.0
 10
1075.635488148604
 20
157.3803490124934
 30
0.0
 10
1069.597097780989
 20
151.9833107280168
 30
0.0
 10
1060.854137779779
 20
148.1291477378676
 30
0.0
  0
SPLINE
  5
206
330
23
100
AcDbEntity
  8
0
100
AcDbSpline
210
0.0
220
0.0
230
1.0
 70
     8
 71
     3
 72
     8
 73
     4
 74
     0
 42
0.0000000001
 43
0.0000000001
 40
0.3773584905660377
 40
0.3773584905660377
 40
0.3773584905660377
 40
0.3773584905660377
 40
0.3962264150943396
 40
0.3962264150943396
 40
0.3962264150943396
 40
0.3962264150943396
 10
1060.854137779779
 20
148.1291477378676
 30
0.0
 10
1053.702457003703
 20
144.9163368308578
 30
0.0
 10
1044.923194054393
 20
142.816816332287
 30
0.0
 10
1034.46794500104
 20
141.872939681641
 30
0.0
  0
SPLINE
  5
207
330
23
100
AcDbEntity
  8
0
100
AcDbSpline
210
0.0
220
0.0
230
1.0
 70
     8
 71
     3
 72
    16
 73
    12
 74
     0
 42
0.0000000001
 43
0.0000000001
 40
0.3962264150943396
 40
0.3962264150943396
 40
0.3962264150943396
 40
0.3962264150943396
 40
0.4150943396226415
 40
0.4150943396226415
 40
0.4150943396226415
 40
0.4150943396226415
 40
0.4339622641509435
 40
0.4339622641509435
 40
0.4339622641509435
 40
0.4339622641509435
 40
0.4528301886792452
 40
0.4528301886792452
 40
0.4528301886792452
 40
0.4528301886792452
 10
1034.46794500104
 20
141.872939681641
 30
0.0
 10
1024.018746439042
 20
140.8927600828873
 30
0.0
 10
1011.808854894104
 20
140.4208217575707
 30
0.0
 10
997.9290277364702
 20
140.4208217575707
 30
0.0
 10
997.9290277364702
 20
140.4208217575707
 30
0.0
 10
997.9290277364702
 20
140.4208217575707
 30
0.0
 10
984.260967776106
 20
140.4208217575707
 30
0.0
 10
984.260967776106
 20
140.4208217575707
 30
0.0
 10
984.260967776106
 20
140.4208217575707
 30
0.0
 10
962.5457543198098
 20
140.4208217575707
 30
0.0
 10
945.1505916876362
 20
141.273941037958
 30
0.0
 10
932.1299343017594
 20
142.9862300900953
 30
0.0
  0
SPLINE
  5
208
330
23
100
AcDbEntity
  8
0
100
AcDbSpline
210
0.0
220
0.0
230
1.0
 70
     8
 71
     3
 72
     8
 73
     4
 74
     0
 42
0.0000000001
 43
0.0000000001
 40
0.4528301886792452
 40
0.4528301886792452
 40
0.4528301886792452
 40
0.4528301886792452
 40
0.4716981132075471
 40
0.4716981132075471
 40
0.4716981132075471
 40
0.4716981132075471
 10
932.1299343017594
 20
142.9862300900953
 30
0.0
 10
923.0481467849271
 20
144.1902778688085
 30
0.0
 10
915.7270522510502
 20
145.9449203604152
 30
0.0
 10
910.1969031568579
 20
148.213854616779
 30
0.0
  0
SPLINE
  5
209
330
23
100
AcDbEntity
  8
0
100
AcDbSpline
210
0.0
220
0.0
230
1.0
 70
     8
 71
     3
 72
     8
 73
     4
 74
     0
 42
0.0000000001
 43
0.0000000001
 40
0.4716981132075471
 40
0.4716981132075471
 40
0.4716981132075471
 40
0.4716981132075471
 40
0.4905660377358491
 40
0.4905660377358491
 40
0.4905660377358491
 40
0.4905660377358491
 10
910.1969031568579
 20
148.213854616779
 30
0.0
 10
904.6304511145585
 20
150.5251423125981
 30
0.0
 10
900.3043497990798
 20
153.6108929012556
 30
0.0
 10
897.2185992104224
 20
157.5981667011054
 30
0.0
  0
SPLINE
  5
20A
330
23
100
AcDbEntity
  8
0
100
AcDbSpline
210
0.0
220
0.0
230
1.0
 70
     8
 71
     3
 72
     8
 73
     4
 74
     0
 42
0.0000000001
 43
0.0000000001
 40
0.4905660377358491
 40
0.4905660377358491
 40
0.4905660377358491
 40
0.4905660377358491
 40
0.509433962264151
 40
0.509433962264151
 40
0.509433962264151
 40
0.509433962264151
 10
897.2185992104224
 20
157.5981667011054
 30
0.0
 10
894.132848621764
 20
161.5370365701777
 30
0.0
 10
891.9909746837452
 20
166.5044899687813
 30
0.0
 10
890.750623956932
 20
172.4581734574987
 30
0.0
  0
SPLINE
  5
20B
330
23
100
AcDbEntity
  8
0
100
AcDbSpline
210
0.0
220
0.0
230
1.0
 70
     8
 71
     3
 72
     8
 73
     4
 74
     0
 42
0.0000000001
 43
0.0000000001
 40
0.509433962264151
 40
0.509433962264151
 40
0.509433962264151
 40
0.509433962264151
 40
0.5283018867924528
 40
0.5283018867924528
 40
0.5283018867924528
 40
0.5283018867924528
 10
890.750623956932
 20
172.4581734574987
 30
0.0
 10
889.552626669567
 20
178.4118569462033
 30
0.0
 10
888.9475775345355
 20
186.0778294870723
 30
0.0
 10
888.9475775345355
 20
195.4621415714131
 30
0.0
  0
SPLINE
  5
20C
330
23
100
AcDbEntity
  8
0
100
AcDbSpline
210
0.0
220
0.0
230
1.0
 70
    24
 71
     3
 72
     8
 73
     4
 74
     0
 42
0.0000000001
 43
0.0000000001
 40
0.5283018867924528
 40
0.5283018867924528
 40
0.5283018867924528
 40
0.5283018867924528
 40
0.5471698113207548
 40
0.5471698113207548
 40
0.5471698113207548
 40
0.5471698113207548
 10
888.9475775345355
 20
195.4621415714131
 30
0.0
 10
888.9475775345355
 20
195.4621415714131
 30
0.0
 10
909.7249648315271
 20
195.4621415714131
 30
0.0
 10
909.7249648315271
 20
195.4621415714131
 30
0.0
  0
SPLINE
  5
20D
330
23
100
AcDbEntity
  8
0
100
AcDbSpline
210
0.0
220
0.0
230
1.0
 70
    24
 71
     3
 72
     8
 73
     4
 74
     0
 42
0.0000000001
 43
0.0000000001
 40
0.5471698113207548
 40
0.5471698113207548
 40
0.5471698113207548
 40
0.5471698113207548
 40
0.5660377358490566
 40
0.5660377358490566
 40
0.5660377358490566
 40
0.5660377358490566
 10
909.7249648315271
 20
195.4621415714131
 30
0.0
 10
909.7249648315271
 20
195.4621415714131
 30
0.0
 10
909.7249648315271
 20
191.8620992179695
 30
0.0
 10
909.7249648315271
 20
191.8620992179695
 30
0.0
  0
SPLINE
  5
20E
330
23
100
AcDbEntity
  8
0
100
AcDbSpline
210
0.0
220
0.0
230
1.0
 70
     8
 71
     3
 72
     8
 73
     4
 74
     0
 42
0.0000000001
 43
0.0000000001
 40
0.5660377358490566
 40
0.5660377358490566
 40
0.5660377358490566
 40
0.5660377358490566
 40
0.5849056603773585
 40
0.5849056603773585
 40
0.5849056603773585
 40
0.5849056603773585
 10
909.7249648315271
 20
191.8620992179695
 30
0.0
 10
909.8096717104315
 20
186.1262334178772
 30
0.0
 10
910.1121962779473
 20
181.5399609743316
 30
0.0
 10
910.6688414821737
 20
178.2000897489409
 30
0.0
  0
SPLINE
  5
20F
330
23
100
AcDbEntity
  8
0
100
AcDbSpline
210
0.0
220
0.0
230
1.0
 70
     8
 71
     3
 72
     8
 73
     4
 74
     0
 42
0.0000000001
 43
0.0000000001
 40
0.5849056603773585
 40
0.5849056603773585
 40
0.5849056603773585
 40
0.5849056603773585
 40
0.6037735849056604
 40
0.6037735849056604
 40
0.6037735849056604
 40
0.6037735849056604
 10
910.6688414821737
 20
178.2000897489409
 30
0.0
 10
911.1831332469526
 20
174.854168032229
 30
0.0
 10
912.5505442921319
 20
171.8168213743619
 30
0.0
 10
914.740822160941
 20
169.1183022321223
 30
0.0
  0
SPLINE
  5
210
330
23
100
AcDbEntity
  8
0
100
AcDbSpline
210
0.0
220
0.0
230
1.0
 70
     8
 71
     3
 72
     8
 73
     4
 74
     0
 42
0.0000000001
 43
0.0000000001
 40
0.6037735849056604
 40
0.6037735849056604
 40
0.6037735849056604
 40
0.6037735849056604
 40
0.6226415094339623
 40
0.6226415094339623
 40
0.6226415094339623
 40
0.6226415094339623
 10
914.740822160941
 20
169.1183022321223
 30
0.0
 10
916.9250495384011
 20
166.4197830898841
 30
0.0
 10
920.3072742032404
 20
164.4049694702245
 30
0.0
 10
924.8935466467788
 20
163.0315079337029
 30
0.0
  0
SPLINE
  5
211
330
23
100
AcDbEntity
  8
0
100
AcDbSpline
210
0.0
220
0.0
230
1.0
 70
     8
 71
     3
 72
     8
 73
     4
 74
     0
 42
0.0000000001
 43
0.0000000001
 40
0.6226415094339623
 40
0.6226415094339623
 40
0.6226415094339623
 40
0.6226415094339623
 40
0.6415094339622641
 40
0.6415094339622641
 40
0.6415094339622641
 40
0.6415094339622641
 10
924.8935466467788
 20
163.0315079337029
 30
0.0
 10
931.6156425369804
 20
161.1498051237585
 30
0.0
 10
940.3101986073856
 20
159.9094543969387
 30
0.0
 10
950.9348614185473
 20
159.3044052619074
 30
0.0
  0
SPLINE
  5
212
330
23
100
AcDbEntity
  8
0
100
AcDbSpline
210
0.0
220
0.0
230
1.0
 70
     8
 71
     3
 72
    12
 73
     8
 74
     0
 42
0.0000000001
 43
0.0000000001
 40
0.6415094339622641
 40
0.6415094339622641
 40
0.6415094339622641
 40
0.6415094339622641
 40
0.6603773584905661
 40
0.6603773584905661
 40
0.6603773584905661
 40
0.6603773584905661
 40
0.6792452830188679
 40
0.6792452830188679
 40
0.6792452830188679
 40
0.6792452830188679
 10
950.9348614185473
 20
159.3044052619074
 30
0.0
 10
961.6018776691563
 20
158.7114571095729
 30
0.0
 10
973.0373063212629
 20
158.4089325420508
 30
0.0
 10
985.2895513056569
 20
158.4089325420508
 30
0.0
 10
985.2895513056569
 20
158.4089325420508
 30
0.0
 10
1003.199005702602
 20
158.4089325420508
 30
0.0
 10
1019.390120556048
 20
159.3528091927109
 30
0.0
 10
1033.868946357357
 20
161.2345120026556
 30
0.0
  0
SPLINE
  5
213
330
23
100
AcDbEntity
  8
0
100
AcDbSpline
210
0.0
220
0.0
230
1.0
 70
     8
 71
     3
 72
     8
 73
     4
 74
     0
 42
0.0000000001
 43
0.0000000001
 40
0.6792452830188679
 40
0.6792452830188679
 40
0.6792452830188679
 40
0.6792452830188679
 40
0.6981132075471698
 40
0.6981132075471698
 40
0.6981132075471698
 40
0.6981132075471698
 10
1033.868946357357
 20
161.2345120026556
 30
0.0
 10
1043.979317403747
 20
162.4325092900213
 30
0.0
 10
1051.215705058727
 20
165.2217858025195
 30
0.0
 10
1055.590210305003
 20
169.5055336785561
 30
0.0
  0
SPLINE
  5
214
330
23
100
AcDbEntity
  8
0
100
AcDbSpline
210
0.0
220
0.0
230
1.0
 70
     8
 71
     3
 72
    12
 73
     8
 74
     0
 42
0.0000000001
 43
0.0000000001
 40
0.6981132075471698
 40
0.6981132075471698
 40
0.6981132075471698
 40
0.6981132075471698
 40
0.7169811320754717
 40
0.7169811320754717
 40
0.7169811320754717
 40
0.7169811320754717
 40
0.7358490566037736
 40
0.7358490566037736
 40
0.7358490566037736
 40
0.7358490566037736
 10
1055.590210305003
 20
169.5055336785561
 30
0.0
 10
1060.001018499392
 20
173.7892815545796
 30
0.0
 10
1062.185245876852
 20
180.813902012282
 30
0.0
 10
1062.185245876852
 20
190.5370416122385
 30
0.0
 10
1062.185245876852
 20
190.5370416122385
 30
0.0
 10
1062.185245876852
 20
199.0198304854015
 30
0.0
 10
1060.769430900875
 20
205.2699880502795
 30
0.0
 10
1057.901498000829
 20
209.2935647982359
 30
0.0
  0
SPLINE
  5
215
330
23
100
AcDbEntity
  8
0
100
AcDbSpline
210
0.0
220
0.0
230
1.0
 70
     8
 71
     3
 72
     8
 73
     4
 74
     0
 42
0.0000000001
 43
0.0000000001
 40
0.7358490566037736
 40
0.7358490566037736
 40
0.7358490566037736
 40
0.7358490566037736
 40
0.7547169811320754
 40
0.7547169811320754
 40
0.7547169811320754
 40
0.7547169811320754
 10
1057.901498000829
 20
209.2935647982359
 30
0.0
 10
1055.075918540224
 20
213.323192037555
 30
0.0
 10
1051.130998179816
 20
215.9370043008963
 30
0.0
 10
1046.163544781206
 20
217.0926481487928
 30
0.0
  0
SPLINE
  5
216
330
23
100
AcDbEntity
  8
0
100
AcDbSpline
210
0.0
220
0.0
230
1.0
 70
     8
 71
     3
 72
     8
 73
     4
 74
     0
 42
0.0000000001
 43
0.0000000001
 40
0.7547169811320754
 40
0.7547169811320754
 40
0.7547169811320754
 40
0.7547169811320754
 40
0.7735849056603774
 40
0.7735849056603774
 40
0.7735849056603774
 40
0.7735849056603774
 10
1046.163544781206
 20
217.0926481487928
 30
0.0
 10
1041.153737943142
 20
218.2482919967023
 30
0.0
 10
1033.868946357357
 20
218.8896440798402
 30
0.0
 10
1024.357573954658
 20
219.1074617684511
 30
0.0
  0
SPLINE
  5
217
330
23
100
AcDbEntity
  8
0
100
AcDbSpline
210
0.0
220
0.0
230
1.0
 70
    24
 71
     3
 72
     8
 73
     4
 74
     0
 42
0.0000000001
 43
0.0000000001
 40
0.7735849056603774
 40
0.7735849056603774
 40
0.7735849056603774
 40
0.7735849056603774
 40
0.7924528301886792
 40
0.7924528301886792
 40
0.7924528301886792
 40
0.7924528301886792
 10
1024.357573954658
 20
219.1074617684511
 30
0.0
 10
1024.357573954658
 20
219.1074617684511
 30
0.0
 10
985.0354306689382
 20
219.621753533237
 30
0.0
 10
985.0354306689382
 20
219.621753533237
 30
0.0
  0
SPLINE
  5
218
330
23
100
AcDbEntity
  8
0
100
AcDbSpline
210
0.0
220
0.0
230
1.0
 70
     8
 71
     3
 72
     8
 73
     4
 74
     0
 42
0.0000000001
 43
0.0000000001
 40
0.7924528301886792
 40
0.7924528301886792
 40
0.7924528301886792
 40
0.7924528301886792
 40
0.811320754716981
 40
0.811320754716981
 40
0.811320754716981
 40
0.811320754716981
 10
985.0354306689382
 20
219.621753533237
 30
0.0
 10
961.1299393438399
 20
220.0029344883077
 30
0.0
 10
945.79799426213
 20
220.4325193741821
 30
0.0
 10
939.0698478805726
 20
220.8621042600433
 30
0.0
  0
SPLINE
  5
219
330
23
100
AcDbEntity
  8
0
100
AcDbSpline
210
0.0
220
0.0
230
1.0
 70
     8
 71
     3
 72
     8
 73
     4
 74
     0
 42
0.0000000001
 43
0.0000000001
 40
0.811320754716981
 40
0.811320754716981
 40
0.811320754716981
 40
0.811320754716981
 40
0.830188679245283
 40
0.830188679245283
 40
0.830188679245283
 40
0.830188679245283
 10
939.0698478805726
 20
220.8621042600433
 30
0.0
 10
930.8472301354834
 20
221.4187494642714
 30
0.0
 10
923.8165591864175
 20
222.4049795543723
 30
0.0
 10
917.9112796285098
 20
223.7723905995452
 30
0.0
  0
SPLINE
  5
21A
330
23
100
AcDbEntity
  8
0
100
AcDbSpline
210
0.0
220
0.0
230
1.0
 70
     8
 71
     3
 72
     8
 73
     4
 74
     0
 42
0.0000000001
 43
0.0000000001
 40
0.830188679245283
 40
0.830188679245283
 40
0.830188679245283
 40
0.830188679245283
 40
0.8490566037735847
 40
0.8490566037735847
 40
0.8490566037735847
 40
0.8490566037735847
 10
917.9112796285098
 20
223.7723905995452
 30
0.0
 10
912.0423030187025
 20
225.1882055755221
 30
0.0
 10
906.857031931481
 20
227.3724329530031
 30
0.0
 10
902.446223737099
 20
230.3250727319459
 30
0.0
  0
SPLINE
  5
21B
330
23
100
AcDbEntity
  8
0
100
AcDbSpline
210
0.0
220
0.0
230
1.0
 70
     8
 71
     3
 72
     8
 73
     4
 74
     0
 42
0.0000000001
 43
0.0000000001
 40
0.8490566037735847
 40
0.8490566037735847
 40
0.8490566037735847
 40
0.8490566037735847
 40
0.8679245283018866
 40
0.8679245283018866
 40
0.8679245283018866
 40
0.8679245283018866
 10
902.446223737099
 20
230.3250727319459
 30
0.0
 10
898.0293650513674
 20
233.3261164417075
 30
0.0
 10
894.6471403865357
 20
237.349693189664
 30
0.0
 10
892.2450953204638
 20
242.4926108374219
 30
0.0
  0
SPLINE
  5
21C
330
23
100
AcDbEntity
  8
0
100
AcDbSpline
210
0.0
220
0.0
230
1.0
 70
     8
 71
     3
 72
    12
 73
     8
 74
     0
 42
0.0000000001
 43
0.0000000001
 40
0.8679245283018866
 40
0.8679245283018866
 40
0.8679245283018866
 40
0.8679245283018866
 40
0.8867924528301886
 40
0.8867924528301886
 40
0.8867924528301886
 40
0.8867924528301886
 40
0.9056603773584903
 40
0.9056603773584903
 40
0.9056603773584903
 40
0.9056603773584903
 10
892.2450953204638
 20
242.4926108374219
 30
0.0
 10
889.8914541851826
 20
247.5931750457533
 30
0.0
 10
888.693456897824
 20
253.9764434203465
 30
0.0
 10
888.693456897824
 20
261.5093051514735
 30
0.0
 10
888.693456897824
 20
261.5093051514735
 30
0.0
 10
888.693456897824
 20
272.9931377343838
 30
0.0
 10
890.6235636385726
 20
282.6739238948984
 30
0.0
 10
894.5200800681835
 20
290.6000675638073
 30
0.0
  0
SPLINE
  5
21D
330
23
100
AcDbEntity
  8
0
100
AcDbSpline
210
0.0
220
0.0
230
1.0
 70
     8
 71
     3
 72
     8
 73
     4
 74
     0
 42
0.0000000001
 43
0.0000000001
 40
0.9056603773584903
 40
0.9056603773584903
 40
0.9056603773584903
 40
0.9056603773584903
 40
0.9245283018867922
 40
0.9245283018867922
 40
0.9245283018867922
 40
0.9245283018867922
 10
894.5200800681835
 20
290.6000675638073
 30
0.0
 10
898.4165964977869
 20
298.5201607413809
 30
0.0
 10
905.187096318793
 20
304.346783911746
 30
0.0
 10
914.9102359187558
 20
308.0315331440867
 30
0.0
  0
SPLINE
  5
21E
330
23
100
AcDbEntity
  8
0
100
AcDbSpline
210
0.0
220
0.0
230
1.0
 70
     8
 71
     3
 72
    12
 73
     8
 74
     0
 42
0.0000000001
 43
0.0000000001
 40
0.9245283018867922
 40
0.9245283018867922
 40
0.9245283018867922
 40
0.9245283018867922
 40
0.9433962264150942
 40
0.9433962264150942
 40
0.9433962264150942
 40
0.9433962264150942
 40
0.9622641509433959
 40
0.9622641509433959
 40
0.9622641509433959
 40
0.9622641509433959
 10
914.9102359187558
 20
308.0315331440867
 30
0.0
 10
927.930893304633
 20
312.8295727848816
 30
0.0
 10
951.6669708719373
 20
315.225567359612
 30
0.0
 10
986.0640141984957
 20
315.225567359612
 30
0.0
 10
986.0640141984957
 20
315.225567359612
 30
0.0
 10
1005.637353716781
 20
315.225567359612
 30
0.0
 10
1022.518224584162
 20
314.4571549581218
 30
0.0
 10
1036.694525817962
 20
312.9142796637931
 30
0.0
  0
SPLINE
  5
21F
330
23
100
AcDbEntity
  8
0
100
AcDbSpline
210
0.0
220
0.0
230
1.0
 70
     8
 71
     3
 72
     8
 73
     4
 74
     0
 42
0.0000000001
 43
0.0000000001
 40
0.9622641509433959
 40
0.9622641509433959
 40
0.9622641509433959
 40
0.9622641509433959
 40
0.981132075471698
 40
0.981132075471698
 40
0.981132075471698
 40
0.981132075471698
 10
1036.694525817962
 20
312.9142796637931
 30
0.0
 10
1051.687643384057
 20
311.413757808905
 30
0.0
 10
1062.524073392474
 20
306.9182427356192
 30
0.0
 10
1069.29457321348
 20
299.421683952586
 30
0.0
  0
SPLINE
  5
220
330
23
100
AcDbEntity
  8
0
100
AcDbSpline
210
0.0
220
0.0
230
1.0
 70
     8
 71
     3
 72
     8
 73
     4
 74
     0
 42
0.0000000001
 43
0.0000000001
 40
0.981132075471698
 40
0.981132075471698
 40
0.981132075471698
 40
0.981132075471698
 40
1.0
 40
1.0
 40
1.0
 40
1.0
 10
1069.29457321348
 20
299.421683952586
 30
0.0
 10
1076.02271959503
 20
291.9251251695383
 30
0.0
 10
1079.362590820407
 20
280.7438171541359
 30
0.0
 10
1079.362590820407
 20
265.8777599064214
 30
0.0
  0
SPLINE
  5
240
330
23
100
AcDbEntity
  8
0
100
AcDbSpline
210
0.0
220
0.0
230
1.0
 70
    24
 71
     3
 72
     8
 73
     4
 74
     0
 42
0.0000000001
 43
0.0000000001
 40
0.0
 40
0.0
 40
0.0
 40
0.0
 40
0.0227272727272727
 40
0.0227272727272727
 40
0.0227272727272727
 40
0.0227272727272727
 10
2338.41184686207
 20
196.9999999999931
 30
0.0
 10
2338.41184686207
 20
196.9999999999931
 30
0.0
 10
2360.0
 20
196.9999999999931
 30
0.0
 10
2360.0
 20
196.9999999999931
 30
0.0
  0
SPLINE
  5
241
330
23
100
AcDbEntity
  8
0
100
AcDbSpline
210
0.0
220
0.0
230
1.0
 70
     8
 71
     3
 72
     8
 73
     4
 74
     0
 42
0.0000000001
 43
0.0000000001
 40
0.0227272727272727
 40
0.0227272727272727
 40
0.0227272727272727
 40
0.0227272727272727
 40
0.0454545454545455
 40
0.0454545454545455
 40
0.0454545454545455
 40
0.0454545454545455
 10
2360.0
 20
196.9999999999931
 30
0.0
 10
2360.000000000001
 20
187.1487664560717
 30
0.0
 10
2359.35864791687
 20
177.9399186208867
 30
0.0
 10
2358.112246698707
 20
171.133115851782
 30
0.0
  0
SPLINE
  5
242
330
23
100
AcDbEntity
  8
0
100
AcDbSpline
210
0.0
220
0.0
230
1.0
 70
     8
 71
     3
 72
     8
 73
     4
 74
     0
 42
0.0000000001
 43
0.0000000001
 40
0.0454545454545455
 40
0.0454545454545455
 40
0.0454545454545455
 40
0.0454545454545455
 40
0.0681818181818182
 40
0.0681818181818182
 40
0.0681818181818182
 40
0.0681818181818182
 10
2358.112246698707
 20
171.133115851782
 30
0.0
 10
2356.829542532439
 20
164.3202625913144
 30
0.0
 10
2354.342790587457
 20
158.7477600576666
 30
0.0
 10
2350.579384967561
 20
154.3369518633052
 30
0.0
  0
SPLINE
  5
243
330
23
100
AcDbEntity
  8
0
100
AcDbSpline
210
0.0
220
0.0
230
1.0
 70
     8
 71
     3
 72
     8
 73
     4
 74
     0
 42
0.0000000001
 43
0.0000000001
 40
0.0681818181818182
 40
0.0681818181818182
 40
0.0681818181818182
 40
0.0681818181818182
 40
0.0909090909090909
 40
0.0909090909090909
 40
0.0909090909090909
 40
0.0909090909090909
 10
2350.579384967561
 20
154.3369518633052
 30
0.0
 10
2346.803878364967
 20
149.9684971083571
 30
0.0
 10
2341.152719443765
 20
146.7133327618911
 30
0.0
 10
2333.613807221261
 20
144.6138122633343
 30
0.0
  0
SPLINE
  5
244
330
23
100
AcDbEntity
  8
0
100
AcDbSpline
210
0.0
220
0.0
230
1.0
 70
     8
 71
     3
 72
     8
 73
     4
 74
     0
 42
0.0000000001
 43
0.0000000001
 40
0.0909090909090909
 40
0.0909090909090909
 40
0.0909090909090909
 40
0.0909090909090909
 40
0.1136363636363637
 40
0.1136363636363637
 40
0.1136363636363637
 40
0.1136363636363637
 10
2333.613807221261
 20
144.6138122633343
 30
0.0
 10
2326.032541559318
 20
142.471938325324
 30
0.0
 10
2315.795110194576
 20
141.273941037958
 30
0.0
 10
2302.901513127051
 20
141.0137699099051
 30
0.0
  0
SPLINE
  5
245
330
23
100
AcDbEntity
  8
0
100
AcDbSpline
210
0.0
220
0.0
230
1.0
 70
    24
 71
     3
 72
     8
 73
     4
 74
     0
 42
0.0000000001
 43
0.0000000001
 40
0.1136363636363637
 40
0.1136363636363637
 40
0.1136363636363637
 40
0.1136363636363637
 40
0.1363636363636364
 40
0.1363636363636364
 40
0.1363636363636364
 40
0.1363636363636364
 10
2302.901513127051
 20
141.0137699099051
 30
0.0
 10
2302.901513127051
 20
141.0137699099051
 30
0.0
 10
2258.69057283027
 20
140.20300406896
 30
0.0
 10
2258.69057283027
 20
140.20300406896
 30
0.0
  0
SPLINE
  5
246
330
23
100
AcDbEntity
  8
0
100
AcDbSpline
210
0.0
220
0.0
230
1.0
 70
     8
 71
     3
 72
     8
 73
     4
 74
     0
 42
0.0000000001
 43
0.0000000001
 40
0.1363636363636364
 40
0.1363636363636364
 40
0.1363636363636364
 40
0.1363636363636364
 40
0.1590909090909091
 40
0.1590909090909091
 40
0.1590909090909091
 40
0.1590909090909091
 10
2258.69057283027
 20
140.20300406896
 30
0.0
 10
2256.548698892258
 20
140.20300406896
 30
0.0
 10
2253.335887985241
 20
140.1606506294905
 30
0.0
 10
2249.179200427571
 20
140.0759437505934
 30
0.0
  0
SPLINE
  5
247
330
23
100
AcDbEntity
  8
0
100
AcDbSpline
210
0.0
220
0.0
230
1.0
 70
     8
 71
     3
 72
    12
 73
     8
 74
     0
 42
0.0000000001
 43
0.0000000001
 40
0.1590909090909091
 40
0.1590909090909091
 40
0.1590909090909091
 40
0.1590909090909091
 40
0.1818181818181819
 40
0.1818181818181819
 40
0.1818181818181819
 40
0.1818181818181819
 40
0.2045454545454546
 40
0.2045454545454546
 40
0.2045454545454546
 40
0.2045454545454546
 10
2249.179200427571
 20
140.0759437505934
 30
0.0
 10
2244.980159430451
 20
139.9912368716822
 30
0.0
 10
2241.809701962881
 20
139.948883432227
 30
0.0
 10
2239.667828024878
 20
139.948883432227
 30
0.0
 10
2239.667828024878
 20
139.948883432227
 30
0.0
 10
2225.921111676952
 20
139.948883432227
 30
0.0
 10
2213.239281806684
 20
140.5478820759098
 30
0.0
 10
2201.586035465965
 20
141.7882328027295
 30
0.0
  0
SPLINE
  5
248
330
23
100
AcDbEntity
  8
0
100
AcDbSpline
210
0.0
220
0.0
230
1.0
 70
     8
 71
     3
 72
     8
 73
     4
 74
     0
 42
0.0000000001
 43
0.0000000001
 40
0.2045454545454546
 40
0.2045454545454546
 40
0.2045454545454546
 40
0.2045454545454546
 40
0.2272727272727273
 40
0.2272727272727273
 40
0.2272727272727273
 40
0.2272727272727273
 10
2201.586035465965
 20
141.7882328027295
 30
0.0
 10
2186.677624778786
 20
143.3311080970726
 30
0.0
 10
2175.544720694204
 20
148.0867942984126
 30
0.0
 10
2168.259929108419
 20
156.0552914067897
 30
0.0
  0
SPLINE
  5
249
330
23
100
AcDbEntity
  8
0
100
AcDbSpline
210
0.0
220
0.0
230
1.0
 70
     8
 71
     3
 72
     8
 73
     4
 74
     0
 42
0.0000000001
 43
0.0000000001
 40
0.2272727272727273
 40
0.2272727272727273
 40
0.2272727272727273
 40
0.2272727272727273
 40
0.2500000000000001
 40
0.2500000000000001
 40
0.2500000000000001
 40
0.2500000000000001
 10
2168.259929108419
 20
156.0552914067897
 30
0.0
 10
2160.93278408318
 20
164.0177380238052
 30
0.0
 10
2156.82450045632
 20
175.6286309250678
 30
0.0
 10
2155.838270366211
 20
190.8335156884121
 30
0.0
  0
SPLINE
  5
24A
330
23
100
AcDbEntity
  8
0
100
AcDbSpline
210
0.0
220
0.0
230
1.0
 70
     8
 71
     3
 72
    12
 73
     8
 74
     0
 42
0.0000000001
 43
0.0000000001
 40
0.2500000000000001
 40
0.2500000000000001
 40
0.2500000000000001
 40
0.2500000000000001
 40
0.2727272727272728
 40
0.2727272727272728
 40
0.2727272727272728
 40
0.2727272727272728
 40
0.2954545454545455
 40
0.2954545454545455
 40
0.2954545454545455
 40
0.2954545454545455
 10
2155.838270366211
 20
190.8335156884121
 30
0.0
 10
2155.196918283079
 20
200.4295949700166
 30
0.0
 10
2154.852040276116
 20
211.2660249784404
 30
0.0
 10
2154.852040276116
 20
223.4759165233717
 30
0.0
 10
2154.852040276116
 20
223.4759165233717
 30
0.0
 10
2154.852040276116
 20
246.0926531908666
 30
0.0
 10
2155.880623805666
 20
262.882766688008
 30
0.0
 10
2157.937790864774
 20
273.8462570147855
 30
0.0
  0
SPLINE
  5
24B
330
23
100
AcDbEntity
  8
0
100
AcDbSpline
210
0.0
220
0.0
230
1.0
 70
     8
 71
     3
 72
     8
 73
     4
 74
     0
 42
0.0000000001
 43
0.0000000001
 40
0.2954545454545455
 40
0.2954545454545455
 40
0.2954545454545455
 40
0.2954545454545455
 40
0.3181818181818182
 40
0.3181818181818182
 40
0.3181818181818182
 40
0.3181818181818182
 10
2157.937790864774
 20
273.8462570147855
 30
0.0
 10
2159.480666159103
 20
281.5606334864309
 30
0.0
 10
2161.749600415474
 20
287.8954979302192
 30
0.0
 10
2164.750644125227
 20
292.8690018201986
 30
0.0
  0
SPLINE
  5
24C
330
23
100
AcDbEntity
  8
0
100
AcDbSpline
210
0.0
220
0.0
230
1.0
 70
     8
 71
     3
 72
     8
 73
     4
 74
     0
 42
0.0000000001
 43
0.0000000001
 40
0.3181818181818182
 40
0.3181818181818182
 40
0.3181818181818182
 40
0.3181818181818182
 40
0.3409090909090909
 40
0.3409090909090909
 40
0.3409090909090909
 40
0.3409090909090909
 10
2164.750644125227
 20
292.8690018201986
 30
0.0
 10
2167.745637343641
 20
297.7941017793456
 30
0.0
 10
2171.388033136526
 20
301.6482647695078
 30
0.0
 10
2175.798841330908
 20
304.4738442300853
 30
0.0
  0
SPLINE
  5
24D
330
23
100
AcDbEntity
  8
0
100
AcDbSpline
210
0.0
220
0.0
230
1.0
 70
     8
 71
     3
 72
     8
 73
     4
 74
     0
 42
0.0000000001
 43
0.0000000001
 40
0.3409090909090909
 40
0.3409090909090909
 40
0.3409090909090909
 40
0.3409090909090909
 40
0.3636363636363636
 40
0.3636363636363636
 40
0.3636363636363636
 40
0.3636363636363636
 10
2175.798841330908
 20
304.4738442300853
 30
0.0
 10
2180.167296085842
 20
307.2631207425965
 30
0.0
 10
2185.098446536352
 20
309.3142373103495
 30
0.0
 10
2190.66489857865
 20
310.6453454074291
 30
0.0
  0
SPLINE
  5
24E
330
23
100
AcDbEntity
  8
0
100
AcDbSpline
210
0.0
220
0.0
230
1.0
 70
     8
 71
     3
 72
     8
 73
     4
 74
     0
 42
0.0000000001
 43
0.0000000001
 40
0.3636363636363636
 40
0.3636363636363636
 40
0.3636363636363636
 40
0.3636363636363636
 40
0.3863636363636363
 40
0.3863636363636363
 40
0.3863636363636363
 40
0.3863636363636363
 10
2190.66489857865
 20
310.6453454074291
 30
0.0
 10
2196.188997181486
 20
311.9704030131328
 30
0.0
 10
2202.959497002493
 20
312.8719262243379
 30
0.0
 10
2210.885640671408
 20
313.4285714285646
 30
0.0
  0
SPLINE
  5
24F
330
23
100
AcDbEntity
  8
0
100
AcDbSpline
210
0.0
220
0.0
230
1.0
 70
     8
 71
     3
 72
    12
 73
     8
 74
     0
 42
0.0000000001
 43
0.0000000001
 40
0.3863636363636363
 40
0.3863636363636363
 40
0.3863636363636363
 40
0.3863636363636363
 40
0.409090909090909
 40
0.409090909090909
 40
0.409090909090909
 40
0.409090909090909
 40
0.4318181818181818
 40
0.4318181818181818
 40
0.4318181818181818
 40
0.4318181818181818
 10
2210.885640671408
 20
313.4285714285646
 30
0.0
 10
2221.165425475606
 20
314.4571549581218
 30
0.0
 10
2236.884602003721
 20
314.9714467229077
 30
0.0
 10
2257.964513868234
 20
314.9714467229077
 30
0.0
 10
2257.964513868234
 20
314.9714467229077
 30
0.0
 10
2260.663033010475
 20
314.9714467229077
 30
0.0
 10
2264.771316637347
 20
315.0138001623485
 30
0.0
 10
2270.259112292078
 20
315.0985070412456
 30
0.0
  0
SPLINE
  5
250
330
23
100
AcDbEntity
  8
0
100
AcDbSpline
210
0.0
220
0.0
230
1.0
 70
     8
 71
     3
 72
    12
 73
     8
 74
     0
 42
0.0000000001
 43
0.0000000001
 40
0.4318181818181818
 40
0.4318181818181818
 40
0.4318181818181818
 40
0.4318181818181818
 40
0.4545454545454544
 40
0.4545454545454544
 40
0.4545454545454544
 40
0.4545454545454544
 40
0.4772727272727272
 40
0.4772727272727272
 40
0.4772727272727272
 40
0.4772727272727272
 10
2270.259112292078
 20
315.0985070412456
 30
0.0
 10
2275.740857455473
 20
315.1832139201569
 30
0.0
 10
2279.855191573688
 20
315.225567359612
 30
0.0
 10
2282.596064155383
 20
315.225567359612
 30
0.0
 10
2282.596064155383
 20
315.225567359612
 30
0.0
 10
2300.929052946846
 20
315.225567359612
 30
0.0
 10
2315.746706263778
 20
314.0275700722476
 30
0.0
 10
2327.061125088867
 20
311.5831715667135
 30
0.0
  0
SPLINE
  5
251
330
23
100
AcDbEntity
  8
0
100
AcDbSpline
210
0.0
220
0.0
230
1.0
 70
     8
 71
     3
 72
     8
 73
     4
 74
     0
 42
0.0000000001
 43
0.0000000001
 40
0.4772727272727272
 40
0.4772727272727272
 40
0.4772727272727272
 40
0.4772727272727272
 40
0.4999999999999999
 40
0.4999999999999999
 40
0.4999999999999999
 40
0.4999999999999999
 10
2327.061125088867
 20
311.5831715667135
 30
0.0
 10
2339.525137270525
 20
309.102470113086
 30
0.0
 10
2347.620694697253
 20
303.4936646313589
 30
0.0
 10
2351.305443929596
 20
294.7507046301288
 30
0.0
  0
SPLINE
  5
252
330
23
100
AcDbEntity
  8
0
100
AcDbSpline
210
0.0
220
0.0
230
1.0
 70
     8
 71
     3
 72
     8
 73
     4
 74
     0
 42
0.0000000001
 43
0.0000000001
 40
0.4999999999999999
 40
0.4999999999999999
 40
0.4999999999999999
 40
0.4999999999999999
 40
0.5227272727272726
 40
0.5227272727272726
 40
0.5227272727272726
 40
0.5227272727272726
 10
2351.305443929596
 20
294.7507046301288
 30
0.0
 10
2355.032546601397
 20
286.0561485597167
 30
0.0
 10
2357.259127418313
 20
274.0156707726056
 30
0.0
 10
2357.900479501445
 20
258.726079130338
 30
0.0
  0
SPLINE
  5
253
330
23
100
AcDbEntity
  8
0
100
AcDbSpline
210
0.0
220
0.0
230
1.0
 70
    24
 71
     3
 72
     8
 73
     4
 74
     0
 42
0.0000000001
 43
0.0000000001
 40
0.5227272727272726
 40
0.5227272727272726
 40
0.5227272727272726
 40
0.5227272727272726
 40
0.5454545454545454
 40
0.5454545454545454
 40
0.5454545454545454
 40
0.5454545454545454
 10
2357.900479501445
 20
258.726079130338
 30
0.0
 10
2357.900479501445
 20
258.726079130338
 30
0.0
 10
2337.340909893065
 20
258.726079130338
 30
0.0
 10
2337.340909893065
 20
258.726079130338
 30
0.0
  0
SPLINE
  5
254
330
23
100
AcDbEntity
  8
0
100
AcDbSpline
210
0.0
220
0.0
230
1.0
 70
    24
 71
     3
 72
     8
 73
     4
 74
     0
 42
0.0000000001
 43
0.0000000001
 40
0.5454545454545454
 40
0.5454545454545454
 40
0.5454545454545454
 40
0.5454545454545454
 40
0.568181818181818
 40
0.568181818181818
 40
0.568181818181818
 40
0.568181818181818
 10
2337.340909893065
 20
258.726079130338
 30
0.0
 10
2337.340909893065
 20
258.726079130338
 30
0.0
 10
2337.340909893065
 20
260.2266009852118
 30
0.0
 10
2337.340909893065
 20
260.2266009852118
 30
0.0
  0
SPLINE
  5
255
330
23
100
AcDbEntity
  8
0
100
AcDbSpline
210
0.0
220
0.0
230
1.0
 70
     8
 71
     3
 72
     8
 73
     4
 74
     0
 42
0.0000000001
 43
0.0000000001
 40
0.568181818181818
 40
0.568181818181818
 40
0.568181818181818
 40
0.568181818181818
 40
0.5909090909090908
 40
0.5909090909090908
 40
0.5909090909090908
 40
0.5909090909090908
 10
2337.340909893065
 20
260.2266009852118
 30
0.0
 10
2337.340909893065
 20
276.5447761570239
 30
0.0
 10
2334.424573062214
 20
286.5704403245025
 30
0.0
 10
2328.597949891856
 20
290.255189556856
 30
0.0
  0
SPLINE
  5
256
330
23
100
AcDbEntity
  8
0
100
AcDbSpline
210
0.0
220
0.0
230
1.0
 70
     8
 71
     3
 72
    12
 73
     8
 74
     0
 42
0.0000000001
 43
0.0000000001
 40
0.5909090909090908
 40
0.5909090909090908
 40
0.5909090909090908
 40
0.5909090909090908
 40
0.6136363636363634
 40
0.6136363636363634
 40
0.6136363636363634
 40
0.6136363636363634
 40
0.6363636363636362
 40
0.6363636363636362
 40
0.6363636363636362
 40
0.6363636363636362
 10
2328.597949891856
 20
290.255189556856
 30
0.0
 10
2321.748793683288
 20
294.7507046301288
 30
0.0
 10
2302.471928241176
 20
296.9772854470506
 30
0.0
 10
2270.767353565515
 20
296.9772854470506
 30
0.0
 10
2270.767353565515
 20
296.9772854470506
 30
0.0
 10
2245.754622323297
 20
296.9772854470506
 30
0.0
 10
2226.992048645958
 20
296.469044173629
 30
0.0
 10
2214.479632533496
 20
295.3920567132667
 30
0.0
  0
SPLINE
  5
257
330
23
100
AcDbEntity
  8
0
100
AcDbSpline
210
0.0
220
0.0
230
1.0
 70
     8
 71
     3
 72
     8
 73
     4
 74
     0
 42
0.0000000001
 43
0.0000000001
 40
0.6363636363636362
 40
0.6363636363636362
 40
0.6363636363636362
 40
0.6363636363636362
 40
0.6590909090909089
 40
0.6590909090909089
 40
0.6590909090909089
 40
0.6590909090909089
 10
2214.479632533496
 20
295.3920567132667
 30
0.0
 10
2206.55953935593
 20
294.7507046301288
 30
0.0
 10
2200.472745057511
 20
293.8128784708314
 30
0.0
 10
2196.188997181486
 20
292.6511841315863
 30
0.0
  0
SPLINE
  5
258
330
23
100
AcDbEntity
  8
0
100
AcDbSpline
210
0.0
220
0.0
230
1.0
 70
     8
 71
     3
 72
     8
 73
     4
 74
     0
 42
0.0000000001
 43
0.0000000001
 40
0.6590909090909089
 40
0.6590909090909089
 40
0.6590909090909089
 40
0.6590909090909089
 40
0.6818181818181816
 40
0.6818181818181816
 40
0.6818181818181816
 40
0.6818181818181816
 10
2196.188997181486
 20
292.6511841315863
 30
0.0
 10
2191.947602744913
 20
291.4955402836625
 30
0.0
 10
2188.607731519529
 20
289.6985443526152
 30
0.0
 10
2186.169383505364
 20
287.2964992865376
 30
0.0
  0
SPLINE
  5
259
330
23
100
AcDbEntity
  8
0
100
AcDbSpline
210
0.0
220
0.0
230
1.0
 70
     8
 71
     3
 72
     8
 73
     4
 74
     0
 42
0.0000000001
 43
0.0000000001
 40
0.6818181818181816
 40
0.6818181818181816
 40
0.6818181818181816
 40
0.6818181818181816
 40
0.7045454545454543
 40
0.7045454545454543
 40
0.7045454545454543
 40
0.7045454545454543
 10
2186.169383505364
 20
287.2964992865376
 30
0.0
 10
2183.72498499983
 20
284.9005047118202
 30
0.0
 10
2181.970342508245
 20
281.6453403653553
 30
0.0
 10
2180.808648168974
 20
277.5733596865811
 30
0.0
  0
SPLINE
  5
25A
330
23
100
AcDbEntity
  8
0
100
AcDbSpline
210
0.0
220
0.0
230
1.0
 70
     8
 71
     3
 72
     8
 73
     4
 74
     0
 42
0.0000000001
 43
0.0000000001
 40
0.7045454545454543
 40
0.7045454545454543
 40
0.7045454545454543
 40
0.7045454545454543
 40
0.7272727272727271
 40
0.7272727272727271
 40
0.7272727272727271
 40
0.7272727272727271
 10
2180.808648168974
 20
277.5733596865811
 30
0.0
 10
2179.653004321063
 20
273.5074294991697
 30
0.0
 10
2178.624420791512
 20
267.5537460104509
 30
0.0
 10
2177.771301511119
 20
259.7123092204403
 30
0.0
  0
SPLINE
  5
25B
330
23
100
AcDbEntity
  8
0
100
AcDbSpline
210
0.0
220
0.0
230
1.0
 70
     8
 71
     3
 72
    12
 73
     8
 74
     0
 42
0.0000000001
 43
0.0000000001
 40
0.7272727272727271
 40
0.7272727272727271
 40
0.7272727272727271
 40
0.7272727272727271
 40
0.7499999999999997
 40
0.7499999999999997
 40
0.7499999999999997
 40
0.7499999999999997
 40
0.7727272727272724
 40
0.7727272727272724
 40
0.7727272727272724
 40
0.7727272727272724
 10
2177.771301511119
 20
259.7123092204403
 30
0.0
 10
2176.869778299921
 20
250.1585833782909
 30
0.0
 10
2176.440193414053
 20
235.6858080683172
 30
0.0
 10
2176.440193414053
 20
216.3181852559672
 30
0.0
 10
2176.440193414053
 20
216.3181852559672
 30
0.0
 10
2176.440193414053
 20
204.7980497249501
 30
0.0
 10
2176.742717981562
 20
195.9764333361844
 30
0.0
 10
2177.341716625244
 20
189.8049321588549
 30
0.0
  0
SPLINE
  5
25C
330
23
100
AcDbEntity
  8
0
100
AcDbSpline
210
0.0
220
0.0
230
1.0
 70
     8
 71
     3
 72
     8
 73
     4
 74
     0
 42
0.0000000001
 43
0.0000000001
 40
0.7727272727272724
 40
0.7727272727272724
 40
0.7727272727272724
 40
0.7727272727272724
 40
0.7954545454545451
 40
0.7954545454545451
 40
0.7954545454545451
 40
0.7954545454545451
 10
2177.341716625244
 20
189.8049321588549
 30
0.0
 10
2177.898361829472
 20
183.6394814728868
 30
0.0
 10
2179.441237123807
 20
178.2000897489409
 30
0.0
 10
2181.927989068783
 20
173.4444035476009
 30
0.0
  0
SPLINE
  5
25D
330
23
100
AcDbEntity
  8
0
100
AcDbSpline
210
0.0
220
0.0
230
1.0
 70
     8
 71
     3
 72
     8
 73
     4
 74
     0
 42
0.0000000001
 43
0.0000000001
 40
0.7954545454545451
 40
0.7954545454545451
 40
0.7954545454545451
 40
0.7954545454545451
 40
0.8181818181818178
 40
0.8181818181818178
 40
0.8181818181818178
 40
0.8181818181818178
 10
2181.927989068783
 20
173.4444035476009
 30
0.0
 10
2184.408690522417
 20
168.7310707857031
 30
0.0
 10
2188.523024640632
 20
165.1310284322597
 30
0.0
 10
2194.222587492632
 20
162.6926804180742
 30
0.0
  0
SPLINE
  5
25E
330
23
100
AcDbEntity
  8
0
100
AcDbSpline
210
0.0
220
0.0
230
1.0
 70
     8
 71
     3
 72
     8
 73
     4
 74
     0
 42
0.0000000001
 43
0.0000000001
 40
0.8181818181818178
 40
0.8181818181818178
 40
0.8181818181818178
 40
0.8181818181818178
 40
0.8409090909090904
 40
0.8409090909090904
 40
0.8409090909090904
 40
0.8409090909090904
 10
2194.222587492632
 20
162.6926804180742
 30
0.0
 10
2199.958453292732
 20
160.2059284730982
 30
0.0
 10
2207.799890082751
 20
158.9655777462784
 30
0.0
 10
2217.867907689671
 20
158.9655777462784
 30
0.0
  0
SPLINE
  5
25F
330
23
100
AcDbEntity
  8
0
100
AcDbSpline
210
0.0
220
0.0
230
1.0
 70
     8
 71
     3
 72
     8
 73
     4
 74
     0
 42
0.0000000001
 43
0.0000000001
 40
0.8409090909090904
 40
0.8409090909090904
 40
0.8409090909090904
 40
0.8409090909090904
 40
0.8636363636363631
 40
0.8636363636363631
 40
0.8636363636363631
 40
0.8636363636363631
 10
2217.867907689671
 20
158.9655777462784
 30
0.0
 10
2235.68660471637
 20
158.6206997393273
 30
0.0
 10
2249.052140109219
 20
158.45128598152
 30
0.0
 10
2257.964513868234
 20
158.45128598152
 30
0.0
  0
SPLINE
  5
260
330
23
100
AcDbEntity
  8
0
100
AcDbSpline
210
0.0
220
0.0
230
1.0
 70
    24
 71
     3
 72
     8
 73
     4
 74
     0
 42
0.0000000001
 43
0.0000000001
 40
0.8636363636363631
 40
0.8636363636363631
 40
0.8636363636363631
 40
0.8636363636363631
 40
0.8863636363636359
 40
0.8863636363636359
 40
0.8863636363636359
 40
0.8863636363636359
 10
2257.964513868234
 20
158.45128598152
 30
0.0
 10
2257.964513868234
 20
158.45128598152
 30
0.0
 10
2296.215720184949
 20
158.9655777462784
 30
0.0
 10
2296.215720184949
 20
158.9655777462784
 30
0.0
  0
SPLINE
  5
261
330
23
100
AcDbEntity
  8
0
100
AcDbSpline
210
0.0
220
0.0
230
1.0
 70
     8
 71
     3
 72
     8
 73
     4
 74
     0
 42
0.0000000001
 43
0.0000000001
 40
0.8863636363636359
 40
0.8863636363636359
 40
0.8863636363636359
 40
0.8863636363636359
 40
0.9090909090909086
 40
0.9090909090909086
 40
0.9090909090909086
 40
0.9090909090909086
 10
2296.215720184949
 20
158.9655777462784
 30
0.0
 10
2304.740862497547
 20
159.2681023138137
 30
0.0
 10
2311.335898069396
 20
159.7339901477815
 30
0.0
 10
2316.049230831294
 20
160.3813927222553
 30
0.0
  0
SPLINE
  5
262
330
23
100
AcDbEntity
  8
0
100
AcDbSpline
210
0.0
220
0.0
230
1.0
 70
     8
 71
     3
 72
     8
 73
     4
 74
     0
 42
0.0000000001
 43
0.0000000001
 40
0.9090909090909086
 40
0.9090909090909086
 40
0.9090909090909086
 40
0.9090909090909086
 40
0.9318181818181813
 40
0.9318181818181813
 40
0.9318181818181813
 40
0.9318181818181813
 10
2316.049230831294
 20
160.3813927222553
 30
0.0
 10
2320.720210153737
 20
161.0227448053932
 30
0.0
 10
2324.786140341148
 20
162.3901558505648
 30
0.0
 10
2328.17441549733
 20
164.4473229096796
 30
0.0
  0
SPLINE
  5
263
330
23
100
AcDbEntity
  8
0
100
AcDbSpline
210
0.0
220
0.0
230
1.0
 70
     8
 71
     3
 72
     8
 73
     4
 74
     0
 42
0.0000000001
 43
0.0000000001
 40
0.9318181818181813
 40
0.9318181818181813
 40
0.9318181818181813
 40
0.9318181818181813
 40
0.9545454545454539
 40
0.9545454545454539
 40
0.9545454545454539
 40
0.9545454545454539
 10
2328.17441549733
 20
164.4473229096796
 30
0.0
 10
2331.556640162155
 20
166.5468434082362
 30
0.0
 10
2334.12809898604
 20
169.7596543152602
 30
0.0
 10
2335.840388038184
 20
174.085755630739
 30
0.0
  0
SPLINE
  5
264
330
23
100
AcDbEntity
  8
0
100
AcDbSpline
210
0.0
220
0.0
230
1.0
 70
     8
 71
     3
 72
    12
 73
     8
 74
     0
 42
0.0000000001
 43
0.0000000001
 40
0.9545454545454539
 40
0.9545454545454539
 40
0.9545454545454539
 40
0.9545454545454539
 40
0.9772727272727268
 40
0.9772727272727268
 40
0.9772727272727268
 40
0.9772727272727268
 40
1.0
 40
1.0
 40
1.0
 40
1.0
 10
2335.840388038184
 20
174.085755630739
 30
0.0
 10
2337.55267709032
 20
178.4542103856596
 30
0.0
 10
2338.41184686207
 20
184.407893874377
 30
0.0
 10
2338.41184686207
 20
191.9468060968666
 30
0.0
 10
2338.41184686207
 20
191.9468060968666
 30
0.0
 10
2338.41184686207
 20
191.9468060968666
 30
0.0
 10
2338.41184686207
 20
196.9999999999931
 30
0.0
 10
2338.41184686207
 20
196.9999999999931
 30
0.0
  0
LINE
  5
26A
330
23
100
AcDbEntity
  8
0
100
AcDbLine
 10
837.9903393821514
 20
228.2558046901341
 30
0.0
 11
837.9903393821514
 21
228.2558046901341
 31
0.0
  0
LWPOLYLINE
  5
26C
330
23
100
AcDbEntity
  8
0
100
AcDbPolyline
 90
        5
 70
     1
 43
0.0
 10
837.9903393821516
 20
358.0
 10
852.0
 20
358.0
 10
852.0
 20
489.9999999999999
 10
837.9903393821514
 20
489.9999999999999
 10
837.9903393821516
 20
358.0
  0
LWPOLYLINE
  5
28F
330
23
100
AcDbEntity
  8
0
100
AcDbPolyline
 90
        4
 70
     1
 43
0.0
 10
838.0
 20
227.9999999999933
 10
852.0
 20
227.9999999999933
 10
852.0
 20
241.9999999999933
 10
838.0
 20
241.9999999999933
  0
LWPOLYLINE
  5
295
330
23
100
AcDbEntity
  8
0
100
AcDbPolyline
 90
        7
 70
     0
 43
0.0
 10
1150.0
 20
313.9999999999933
 10
1150.0
 20
141.9999999999933
 10
1306.0
 20
141.9999999999933
 10
1306.0
 20
158.9999999999933
 10
1171.0
 20
158.9999999999933
 10
1171.0
 20
313.9999999999933
 10
1150.0
 20
313.9999999999933
  0
LWPOLYLINE
  5
29B
330
23
100
AcDbEntity
  8
0
100
AcDbPolyline
 90
        5
 70
     1
 43
0.0
 10
837.9903393821516
 20
9.999999999993292
 10
852.0
 20
9.999999999993292
 10
852.0
 20
141.9999999999933
 10
837.9903393821514
 20
141.9999999999933
 10
837.9903393821516
 20
9.999999999993292
  0
LWPOLYLINE
  5
2B2
330
23
100
AcDbEntity
  8
0
100
AcDbPolyline
 90
        9
 70
     0
 43
0.0
 10
1358.0
 20
141.9999999999932
 10
1382.0
 20
141.9999999999932
 10
1404.623255813931
 20
179.9999999999932
 10
1543.376744186069
 20
179.9999999999932
 10
1566.000000000022
 20
141.9999999999932
 10
1590.0
 20
141.9999999999931
 10
1487.6
 20
313.9999999999932
 10
1460.4
 20
313.9999999999932
 10
1358.0
 20
141.9999999999932
  0
LWPOLYLINE
  5
2B3
330
23
100
AcDbEntity
  8
0
100
AcDbPolyline
 90
        4
 70
     0
 43
0.0
 10
1414.744186046489
 20
196.9999999999932
 10
1533.255813953511
 20
196.9999999999932
 10
1474.0
 20
296.5312500000309
 10
1414.744186046489
 20
196.9999999999932
  0
LWPOLYLINE
  5
2C4
330
23
100
AcDbEntity
  8
0
100
AcDbPolyline
 90
       11
 70
     0
 43
0.0
 10
1636.0
 20
141.9999999999931
 10
1657.0
 20
141.9999999999931
 10
1657.0
 20
297.3420709635903
 10
1816.0
 20
141.9999999999931
 10
1850.0
 20
141.9999999999931
 10
1850.0
 20
313.9999999999933
 10
1829.0
 20
313.9999999999933
 10
1829.0
 20
158.6579290363958
 10
1670.0
 20
313.9999999999931
 10
1636.0
 20
313.9999999999933
 10
1636.0
 20
141.9999999999931
  0
LINE
  5
2D0
330
23
100
AcDbEntity
  8
0
100
AcDbLine
 10
1921.999999948494
 20
313.9999999999931
 30
0.0
 11
2094.0
 21
313.9999999999931
 31
0.0
  0
LWPOLYLINE
  5
2D1
330
23
100
AcDbEntity
  8
0
100
AcDbPolyline
 90
       13
 70
     0
 43
0.0
 10
1922.0
 20
313.9999999999931
 10
2094.0
 20
313.9999999999931
 10
2094.0
 20
296.9999999999931
 10
1943.0
 20
296.9999999999931
 10
1943.0
 20
238.9999999999931
 10
2086.0
 20
238.9999999999931
 10
2086.0
 20
221.9999999999931
 10
1943.0
 20
221.9999999999931
 10
1943.0
 20
158.9999999999931
 10
2094.0
 20
158.9999999999931
 10
2094.0
 20
141.999999999993
 10
1922.0
 20
141.9999999999931
 10
1922.0
 20
313.9999999999931
  0
LWPOLYLINE
  5
3CF
330
23
100
AcDbEntity
  8
0
100
AcDbPolyline
 90
        4
 70
     1
 43
0.0
 10
0.0
 20
0.0
 10
2400.0
 20
0.0
 10
2400.0
 20
499.9999999999999
 10
0.0
 20
499.9999999999999
  0
INSERT
  5
C18
330
23
100
AcDbEntity
  8
AS_ROZP2
100
AcDbBlockReference
  2
atelier SLANEC
 10
0.0
 20
-799.9999999999998
 30
0.0
  0
LWPOLYLINE
  5
C65
330
23
100
AcDbEntity
  8
0
100
AcDbPolyline
 90
        4
 70
     1
 43
0.0
 10
0.0
 20
-800.0
 10
2400.0
 20
-800.0
 10
2400.0
 20
-300.0
 10
0.0
 20
-300.0
  0
ENDSEC
  0
SECTION
  2
OBJECTS
  0
DICTIONARY
  5
C
330
0
100
AcDbDictionary
281
     1
  3
ACAD_COLOR
350
1C
  3
ACAD_GROUP
350
D
  3
ACAD_IMAGE_DICT
350
B77
  3
ACAD_IMAGE_VARS
350
B7C
  3
ACAD_LAYOUT
350
1A
  3
ACAD_MATERIAL
350
1B
  3
ACAD_MLINESTYLE
350
17
  3
ACAD_PLOTSETTINGS
350
19
  3
ACAD_PLOTSTYLENAME
350
E
  3
ACAD_TABLESTYLE
350
1D
  3
ACDBHEADERROUNDTRIPXREC
350
C6A
  3
AcDbVariableDictionary
350
283
  3
AEC_CLASSIFICATION_SYSTEM_DEFS
350
155
  0
DICTIONARY
  5
AEC
330
2
100
AcDbDictionary
280
     1
281
     1
  3
ACAD_LAYERFILTERS
360
BC8
  3
ACAD_LAYERSTATES
360
B0E
  3
ACLYDICTIONARY
360
BC7
  0
DICTIONARY
  5
27D
330
23
100
AcDbDictionary
280
     1
281
     1
  3
ACAD_SORTENTS
360
27E
  0
DICTIONARY
  5
1C
102
{ACAD_REACTORS
330
C
102
}
330
C
100
AcDbDictionary
281
     1
  0
DICTIONARY
  5
D
102
{ACAD_REACTORS
330
C
102
}
330
C
100
AcDbDictionary
281
     1
  0
DICTIONARY
  5
B77
102
{ACAD_REACTORS
330
C
102
}
330
C
100
AcDbDictionary
281
     0
  3
Atel_Slanec_LOGO3
350
B78
  3
FHB RAZÍTKO-JPEG
350
B79
  0
RASTERVARIABLES
  5
B7C
102
{ACAD_REACTORS
330
C
102
}
330
C
100
AcDbRasterVariables
 90
        0
 70
     1
 71
     1
 72
     1
  0
DICTIONARY
  5
1A
102
{ACAD_REACTORS
330
C
102
}
330
C
100
AcDbDictionary
281
     1
  3
Layout1
350
22
  3
Layout2
350
2A
  3
Model
350
26
  0
DICTIONARY
  5
1B
102
{ACAD_REACTORS
330
C
102
}
330
C
100
AcDbDictionary
281
     1
  0
DICTIONARY
  5
17
102
{ACAD_REACTORS
330
C
102
}
330
C
100
AcDbDictionary
281
     1
  3
Standard
350
18
  0
DICTIONARY
  5
19
102
{ACAD_REACTORS
330
C
102
}
330
C
100
AcDbDictionary
281
     1
  0
ACDBDICTIONARYWDFLT
  5
E
102
{ACAD_REACTORS
330
C
102
}
330
C
100
AcDbDictionary
281
     1
  3
Normal
350
F
100
AcDbDictionaryWithDefault
340
F
  0
DICTIONARY
  5
1D
102
{ACAD_REACTORS
330
C
102
}
330
C
100
AcDbDictionary
281
     1
  3
Standard
350
1E
  0
DICTIONARY
  5
C6A
102
{ACAD_REACTORS
330
C
102
}
330
C
100
AcDbDictionary
281
     1
  0
DICTIONARY
  5
283
102
{ACAD_REACTORS
330
C
102
}
330
C
100
AcDbDictionary
281
     1
  3
CTABLESTYLE
350
284
  3
DIMASSOC
350
C67
  3
HIDETEXT
350
C66
  3
PROJECTNAME
350
C68
  0
DICTIONARY
  5
155
102
{ACAD_REACTORS
330
C
102
}
330
C
100
AcDbDictionary
281
     1
  0
DICTIONARY
  5
BC8
102
{ACAD_REACTORS
330
AEC
102
}
330
AEC
100
AcDbDictionary
281
     1
  0
DICTIONARY
  5
B0E
102
{ACAD_REACTORS
330
AEC
102
}
330
AEC
100
AcDbDictionary
281
     1
  0
DICTIONARY
  5
BC7
102
{ACAD_REACTORS
330
AEC
102
}
330
AEC
100
AcDbDictionary
281
     1
1001
ACAD
1000
<All
  0
SORTENTSTABLE
  5
27E
102
{ACAD_REACTORS
330
27D
102
}
330
27D
100
AcDbSortentsTable
330
23
331
209
  5
209
331
15C
  5
15C
331
1CA
  5
1CA
331
258
  5
258
331
1D2
  5
1D2
331
260
  5
260
331
164
  5
164
331
1DA
  5
1DA
331
16C
  5
16C
331
19B
  5
19B
331
211
  5
211
331
174
  5
174
331
1A3
  5
1A3
331
1E2
  5
1E2
331
219
  5
219
331
1EA
  5
1EA
331
17C
  5
17C
331
1AB
  5
1AB
331
241
  5
241
331
1F2
  5
1F2
331
1B3
  5
1B3
331
3CF
  5
299
331
184
  5
184
331
249
  5
249
331
1FA
  5
1FA
331
18C
  5
18C
331
1BB
  5
1BB
331
251
  5
251
331
202
  5
202
331
259
  5
259
331
15D
  5
15D
331
1CB
  5
1CB
331
20A
  5
20A
331
1D3
  5
1D3
331
261
  5
261
331
165
  5
165
331
212
  5
212
331
16D
  5
16D
331
19C
  5
19C
331
1DB
  5
1DB
331
1E3
  5
1E3
331
175
  5
175
331
1A4
  5
1A4
331
21A
  5
21A
331
2D0
  5
2D7
331
1EB
  5
1EB
331
17D
  5
17D
331
1AC
  5
1AC
331
242
  5
242
331
1B4
  5
1B4
331
1F3
  5
1F3
331
185
  5
185
331
1FB
  5
1FB
331
18D
  5
18D
331
1BC
  5
1BC
331
24A
  5
24A
331
252
  5
252
331
203
  5
203
331
195
  5
195
331
1C4
  5
1C4
331
25A
  5
25A
331
20B
  5
20B
331
15E
  5
15E
331
1CC
  5
1CC
331
1D4
  5
1D4
331
262
  5
262
331
166
  5
166
331
26A
  5
26A
331
19D
  5
19D
331
1DC
  5
1DC
331
213
  5
213
331
16E
  5
16E
331
2D1
  5
2D8
331
1A5
  5
1A5
331
21B
  5
21B
331
176
  5
176
331
1EC
  5
1EC
331
1AD
  5
1AD
331
17E
  5
17E
331
243
  5
243
331
1F4
  5
1F4
331
186
  5
186
331
24B
  5
24B
331
1FC
  5
1FC
331
1BD
  5
1BD
331
18E
  5
18E
331
253
  5
253
331
1C5
  5
1C5
331
204
  5
204
331
196
  5
196
331
20C
  5
20C
331
1CD
  5
1CD
331
25B
  5
25B
331
2B2
  5
2D0
331
15F
  5
15F
331
1D5
  5
1D5
331
263
  5
263
331
167
  5
167
331
C18
  5
C3E
331
214
  5
214
331
19E
  5
19E
331
1DD
  5
1DD
331
16F
  5
16F
331
1E5
  5
1E5
331
1A6
  5
1A6
331
21C
  5
21C
331
177
  5
177
331
1AE
  5
1AE
331
1ED
  5
1ED
331
17F
  5
17F
331
244
  5
244
331
1B6
  5
1B6
331
1F5
  5
1F5
331
187
  5
187
331
1FD
  5
1FD
331
1BE
  5
1BE
331
24C
  5
24C
331
18F
  5
18F
331
254
  5
254
331
205
  5
205
331
1C6
  5
1C6
331
29B
  5
2CD
331
158
  5
158
331
197
  5
197
331
25C
  5
25C
331
20D
  5
20D
331
1CE
  5
1CE
331
2B3
  5
2D1
331
1D6
  5
1D6
331
264
  5
264
331
160
  5
160
331
168
  5
168
331
26C
  5
26C
331
170
  5
170
331
19F
  5
19F
331
1DE
  5
1DE
331
215
  5
215
331
21D
  5
21D
331
178
  5
178
331
1A7
  5
1A7
331
1E6
  5
1E6
331
1EE
  5
1EE
331
1AF
  5
1AF
331
245
  5
245
331
1F6
  5
1F6
331
1B7
  5
1B7
331
180
  5
180
331
188
  5
188
331
24D
  5
24D
331
190
  5
190
331
1BF
  5
1BF
331
1FE
  5
1FE
331
255
  5
255
331
159
  5
159
331
1C7
  5
1C7
331
206
  5
206
331
20E
  5
20E
331
1CF
  5
1CF
331
25D
  5
25D
331
1D7
  5
1D7
331
161
  5
161
331
169
  5
169
331
198
  5
198
331
2C4
  5
2D2
331
216
  5
216
331
171
  5
171
331
1A0
  5
1A0
331
1DF
  5
1DF
331
1E7
  5
1E7
331
179
  5
179
331
1A8
  5
1A8
331
21E
  5
21E
331
1B0
  5
1B0
331
1EF
  5
1EF
331
246
  5
246
331
1F7
  5
1F7
331
181
  5
181
331
189
  5
189
331
1B8
  5
1B8
331
295
  5
2CC
331
1FF
  5
1FF
331
191
  5
191
331
1C0
  5
1C0
331
24E
  5
24E
331
256
  5
256
331
207
  5
207
331
15A
  5
15A
331
1C8
  5
1C8
331
25E
  5
25E
331
1D0
  5
1D0
331
20F
  5
20F
331
162
  5
162
331
1D8
  5
1D8
331
16A
  5
16A
331
199
  5
199
331
172
  5
172
331
1A1
  5
1A1
331
1E0
  5
1E0
331
217
  5
217
331
21F
  5
21F
331
1A9
  5
1A9
331
1E8
  5
1E8
331
1F0
  5
1F0
331
1B1
  5
1B1
331
247
  5
247
331
182
  5
182
331
1F8
  5
1F8
331
18A
  5
18A
331
1B9
  5
1B9
331
24F
  5
24F
331
192
  5
192
331
1C1
  5
1C1
331
200
  5
200
331
257
  5
257
331
15B
  5
15B
331
1C9
  5
1C9
331
208
  5
208
331
1D1
  5
1D1
331
25F
  5
25F
331
163
  5
163
331
210
  5
210
331
16B
  5
16B
331
19A
  5
19A
331
1D9
  5
1D9
331
1E1
  5
1E1
331
173
  5
173
331
1A2
  5
1A2
331
218
  5
218
331
1E9
  5
1E9
331
17B
  5
17B
331
1AA
  5
1AA
331
220
  5
220
331
240
  5
240
331
1B2
  5
1B2
331
1F1
  5
1F1
331
28F
  5
2CB
331
183
  5
183
331
248
  5
248
331
18B
  5
18B
331
1F9
  5
1F9
331
250
  5
250
331
201
  5
201
331
193
  5
193
331
1C2
  5
1C2
  0
IMAGEDEF
  5
B78
102
{ACAD_REACTORS
330
B77
102
}
330
B77
100
AcDbRasterImageDef
 90
        0
  1
\\Server\servis\podpisy\Atel_Slanec_LOGO3.jpg
 10
750.0
 20
160.0
 11
0.0013333333333333
 21
0.0013333333333333
280
     1
281
     0
  0
IMAGEDEF
  5
B79
102
{ACAD_REACTORS
330
B77
102
}
330
B77
100
AcDbRasterImageDef
 90
        0
  1
\\Server\SERVIS\podpisy\FHB RAZÍTKO-JPEG.JPG
 10
926.0
 20
264.0
 11
0.1693333333333333
 21
0.1693333333333333
280
     1
281
     5
  0
LAYOUT
  5
22
102
{ACAD_XDICTIONARY
360
C6B
102
}
102
{ACAD_REACTORS
330
1A
102
}
330
1A
100
AcDbPlotSettings
  1

  2
KONICA MINOLTA 162
  4

  6

 40
0.0
 41
0.0
 42
0.0
 43
0.0
 44
0.0
 45
0.0
 46
0.0
 47
0.0
 48
0.0
 49
0.0
140
0.0
141
0.0
142
1.0
143
1.0
 70
   688
 72
     0
 73
     0
 74
     5
  7

 75
    16
147
1.0
148
0.0
149
0.0
100
AcDbLayout
  1
Layout1
 70
     1
 71
     1
 10
0.0
 20
0.0
 11
420.0
 21
297.0
 12
0.0
 22
0.0
 32
0.0
 14
1.000000000000000E+20
 24
1.000000000000000E+20
 34
1.000000000000000E+20
 15
-1.000000000000000E+20
 25
-1.000000000000000E+20
 35
-1.000000000000000E+20
146
0.0
 13
0.0
 23
0.0
 33
0.0
 16
1.0
 26
0.0
 36
0.0
 17
0.0
 27
1.0
 37
0.0
 76
     0
330
1F
  0
LAYOUT
  5
2A
102
{ACAD_XDICTIONARY
360
C6F
102
}
102
{ACAD_REACTORS
330
1A
102
}
330
1A
100
AcDbPlotSettings
  1

  2
KONICA MINOLTA 162
  4

  6

 40
0.0
 41
0.0
 42
0.0
 43
0.0
 44
0.0
 45
0.0
 46
0.0
 47
0.0
 48
0.0
 49
0.0
140
0.0
141
0.0
142
1.0
143
1.0
 70
   688
 72
     0
 73
     0
 74
     5
  7

 75
    16
147
1.0
148
0.0
149
0.0
100
AcDbLayout
  1
Layout2
 70
     1
 71
     2
 10
0.0
 20
0.0
 11
12.0
 21
9.0
 12
0.0
 22
0.0
 32
0.0
 14
0.0
 24
0.0
 34
0.0
 15
0.0
 25
0.0
 35
0.0
146
0.0
 13
0.0
 23
0.0
 33
0.0
 16
1.0
 26
0.0
 36
0.0
 17
0.0
 27
1.0
 37
0.0
 76
     0
330
27
  0
LAYOUT
  5
26
102
{ACAD_XDICTIONARY
360
C6D
102
}
102
{ACAD_REACTORS
330
1A
102
}
330
1A
100
AcDbPlotSettings
  1

  2
KONICA MINOLTA 162
  4

  6

 40
0.0
 41
0.0
 42
0.0
 43
0.0
 44
0.0
 45
0.0
 46
0.0
 47
0.0
 48
0.0
 49
0.0
140
0.0
141
0.0
142
1.0
143
1.0
 70
  1712
 72
     0
 73
     0
 74
     0
  7

 75
     0
147
1.0
148
0.0
149
0.0
100
AcDbLayout
  1
Model
 70
     1
 71
     0
 10
0.0
 20
0.0
 11
12.0
 21
9.0
 12
0.0
 22
0.0
 32
0.0
 14
0.0
 24
0.0
 34
0.0
 15
0.0
 25
0.0
 35
0.0
146
0.0
 13
0.0
 23
0.0
 33
0.0
 16
1.0
 26
0.0
 36
0.0
 17
0.0
 27
1.0
 37
0.0
 76
     0
330
23
  0
MLINESTYLE
  5
18
102
{ACAD_REACTORS
330
17
102
}
330
17
100
AcDbMlineStyle
  2
STANDARD
 70
     0
  3

 62
   256
 51
90.0
 52
90.0
 71
     2
 49
0.5
 62
   256
  6
BYLAYER
 49
-0.5
 62
   256
  6
BYLAYER
  0
ACDBPLACEHOLDER
  5
F
102
{ACAD_REACTORS
330
E
102
}
330
E
  0
TABLESTYLE
  5
1E
102
{ACAD_REACTORS
330
1D
102
}
330
1D
100
AcDbTableStyle
  3
Standard
 70
     0
 71
     0
 40
1.5
 41
1.5
280
     0
281
     0
  7
Standard
140
4.5
170
     2
 62
     0
 63
     7
283
     0
274
    -2
284
     1
 64
     0
275
    -2
285
     1
 65
     0
276
    -2
286
     1
 66
     0
277
    -2
287
     1
 67
     0
278
    -2
288
     1
 68
     0
279
    -2
289
     1
 69
     0
  7
Standard
140
6.0
170
     5
 62
     0
 63
     7
283
     0
274
    -2
284
     1
 64
     0
275
    -2
285
     1
 65
     0
276
    -2
286
     1
 66
     0
277
    -2
287
     1
 67
     0
278
    -2
288
     1
 68
     0
279
    -2
289
     1
 69
     0
  7
Standard
140
4.5
170
     5
 62
     0
 63
     7
283
     0
274
    -2
284
     1
 64
     0
275
    -2
285
     1
 65
     0
276
    -2
286
     1
 66
     0
277
    -2
287
     1
 67
     0
278
    -2
288
     1
 68
     0
279
    -2
289
     1
 69
     0
  0
DICTIONARYVAR
  5
284
102
{ACAD_REACTORS
330
283
102
}
330
283
100
DictionaryVariables
280
     0
  1
STANDARD
  0
DICTIONARYVAR
  5
C67
102
{ACAD_REACTORS
330
283
102
}
330
283
100
DictionaryVariables
280
     0
  1
2
  0
DICTIONARYVAR
  5
C66
102
{ACAD_REACTORS
330
283
102
}
330
283
100
DictionaryVariables
280
     0
  1
1
  0
DICTIONARYVAR
  5
C68
102
{ACAD_REACTORS
330
283
102
}
330
283
100
DictionaryVariables
280
     0
  1

  0
DICTIONARY
  5
C6B
330
22
100
AcDbDictionary
280
     1
281
     1
  3
ACAD_XREC_ROUNDTRIP
360
C6C
  0
DICTIONARY
  5
C6F
330
2A
100
AcDbDictionary
280
     1
281
     1
  3
ACAD_XREC_ROUNDTRIP
360
C70
  0
DICTIONARY
  5
C6D
330
26
100
AcDbDictionary
280
     1
281
     1
  3
ACAD_XREC_ROUNDTRIP
360
C6E
  0
XRECORD
  5
C6C
102
{ACAD_REACTORS
330
C6B
102
}
330
C6B
100
AcDbXrecord
280
     1
102
SHADEPLOT
 70
     0
102
SHADEPLOTRESLEVEL
 70
     2
102
SHADEPLOTCUSTOMDPI
 70
   300
  0
XRECORD
  5
C70
102
{ACAD_REACTORS
330
C6F
102
}
330
C6F
100
AcDbXrecord
280
     1
102
SHADEPLOT
 70
     0
102
SHADEPLOTRESLEVEL
 70
     2
102
SHADEPLOTCUSTOMDPI
 70
   300
  0
XRECORD
  5
C6E
102
{ACAD_REACTORS
330
C6D
102
}
330
C6D
100
AcDbXrecord
280
     1
102
SHADEPLOT
 70
     0
102
SHADEPLOTRESLEVEL
 70
     2
102
SHADEPLOTCUSTOMDPI
 70
   300
  0
ENDSEC
  0
EOF
